Search tabs:
Browse artists: 0-9 | A | B | C | D | E | F | G | H | I | J | K | L | M | N | O | P | Q | R | S | T | U | V | W | X | Y | Z
/ / / bass tab

Eternal Life
Jeff Buckley
Standard Tuning (E-A-D-G)
I dunno if this is any good, it might be too high cos i figured it out on guitar, which took me absolutely ages. Please rate this and add any corrections. Have Fun

Intro (starts at heavy part)
|-----------------|
|---------------0-|
|-3-3-3-3-3-3-3---|  x9
|-----------------|

Verse
|-2-2-2-2-2-2-|-------------|-----------------|-----------------------|
|-------------|-2-2-2-2-2-0-|-3-3-3-3-3-3-3-3-|-3-3-3-3-3-3-5-5-3-5-3-|
|-------------|-------------|-----------------|-----------------------|
|-------------|-------------|-----------------|-----------------------|
Whole Riff x2

|-2-2-2-2-2-2-|-------------|-----------------|-------------2-2---2---|
|-------------|-2-2-2-2-2-0-|-3-3-3-3-3-3-3-3-|-3-3-3-3-3-3-----3---3-|
|-------------|-------------|-----------------|-----------------------|
|-------------|-------------|-----------------|-----------------------|

|-2-2-2-2-2-2-|-------------|----------------12----11-12-|-----------------------|
|-------------|-2-2-2-2-2-0-|-------------------12-------|-3-3-3-3-3-3-5-5-3-5-3-|
|-------------|-------------|-13-13-13-13-13-------------|-----------------------|
|-------------|-------------|----------------------------|-----------------------|

Chorus
|-------11-11----------11-11----|    |-5-5-5-------2-4-5-|-5-5-5-------3-----|
|-------------------------------|    |-------2-2-3-------|-------2-2-3---3-5-|
|-------------------------------| x2 |-------------------|-------------------|
|-12-12-------12-12-12-------12-|    |-------------------|-------------------|

|-4-------7-4-4---4-|-9-9-9-9-9-13-|
|-------------------|--------------|
|---6-5-5-------5---|--------------|
|-------------------|--------------|

Then Play
Intro Riff  x2
Verse
Chorus

Bridge
|-----------------|-----------------|-----------------|-----------------|
|-8-8-8-8-8-8---8-|-7-7-7-7-7-7-7-7-|-----------------|-----------------|
|-----------------|-----------------|-6-6-6-6-6-6-6-6-|-5-5-5-5-5-5-5-5-|
|-----------------|-----------------|-----------------|-----------------|

|-0-0-0-0-0-0-0-0-|
|-----------------|
|-----------------|
|-----------------|

Interlude
|---------------6---5-|    |----------|----------|----------|----------|
|-8p7-----------------|    |-8--------|-7--------|----------|----------|
|-----8-8-8-8-8---8---| x4 |----------|----------|-6--------|-5--------|
|---------------------|    |----------|----------|----------|----------|

|-----------------|-----------------|-----------------|-----------------|
|-5-5-5-5-5-5-5-5-|-3-3-3-3-3-3-3-3-|-2-2-2-2-2-2-2-2-|-----------------|
|-----------------|-----------------|-----------------|-5-5-5-5-5-5-5-5-|
|-----------------|-----------------|-----------------|-----------------|

|-----------------|
|-----------------|
|-3-3-3-3-3-3-3-5-|
|-----------------|
Then Play
Intro Riff  x3
Verse
Chorus  x2

Outro
|---------------------------------------------------------|
|---------------------------------------------------------|
|-3333/5555/7777/8888/10101010/12121212/14141414/15151515-|
|---------------------------------------------------------|

End On
|---2--4-6------------------|
|-3-------------------------|
|----------4-4--let ring~~~-|
|---------------------------|


albums
tabs

 

1