Search tabs:
Browse artists: 0-9 | A | B | C | D | E | F | G | H | I | J | K | L | M | N | O | P | Q | R | S | T | U | V | W | X | Y | Z
/ / / bass tab

Song : Last Goodbye
Artist : Jeff BUCKLEY
Album : Grace
Tabbed by : aroirand@yahoo.fr

Beware : the notes are good but the rythm is not accurate
(too long to write it)

F#|-|-|-|-|
 D|-|-|-|-|
 A|-|-|-|-|
 E|-|-|-|-|

Part 1 : (X2)
F#|-3-3-3--6-6|-1-1-1--8-8|
 D|4-4-4-/7-7-|2-2-2-/9-9-|
 A|-----------|-----------|
 E|-----------|-----------|

Part 2 : (X4)
F#|----88----------|
 D|---------4-54-4-|
 A|5-55----7-7--7--|
 E|----------------|

Part 1 (X3)

Part 3 :
F#|-----------|-8\--|----8\--|-------|----|---|-----|---|---|------|
 D|-----------|-----|--------|-------|----|---|-----|---|---|----44|
 A|4-4545-2---|5----|5-55----|-----2~|----|---|2525~|7--|2--|5577--|
 E|---------5-|-----|--------|0-025--|5~0~|23~|-----|-5~|-3~|------|

Part 2
Part 3
Part 2

F#|---8\353|-8\--|
 D|--------|-----|
 A|555-----|5----|
 E|--------|---5\|

Part 3

F#|-----|----|-----|-3-3-3-353-|-1-1-1-131-|
 D|-----|----|2~---|4-4-4-4---4|2-2-2-2---3|
 A|---2~|----|---5~|-----------|-----------|
 E|025--|5~3~|--5--|-----------|-----------|

Part 4 : (X2)
F#|----66|-------|----66|-4~|
 D|------|---2323|------|---|
 A|5555--|555----|5555--|5--|
 E|------|-------|------|---|

Part 1 (X3)

F#|--|---|-----|
 D|--|---|---44|
 A|4~|2--|5577-|
 E|--|-3~|-----|

Part 2
Part 3
Part 2

F#|---8\----|
 D|-----44/7|
 A|555------|
 E|---------|

Part 5 : (X2)
F#|---88-5-885-|
 D|-----7-7---7|
 A|555---------|
 E|------------|

Part 2

F#|---88-5-87|------|----|-------|----|-------|----------------|
 D|-----7-7--|------|----|-------|-445|-------|----------------|
 A|555-------|245-45|----|245-445|7---|245-445|--------------24|
 E|----------|---5--|3~7\|---5---|----|---5---|33333333333355--|

F#|-------------|-------------|
 D|-------------|------------4|
 A|5-555-5-52--2|-------------|
 E|-----------5-|3-333-5-25-2-|

F#|---------------|---------------|
 D|---------------|-------------2-|
 A|5-555-5--52--2-|---------------|
 E|------------5--|3-333-5--25-2--|

F#|---------------|---------------|
 D|---------------|-------------4-|
 A|5-555-5--52--2-|---------------|
 E|------------5--|3-333-5--25-2--|

F#|---------------|---------------|--|----|-|
 D|2-222-22-------|---------------|2~|----|-|
 A|---------22-22-|---------------|--|10\2|-|
 E|---------------|5-555-55-33~---|--|----|-|

Part 1 (X2)
Part 2 (X4)
Part 5 (X4)
Part 4 (X2)

F#|---------------|---------------|--|
 D|---------------|4-44-4-4h5-4h5-|--|
 A|5-55-5-5h7-5h7-|---------------|--|
 E|---------------|---------------|0~|


albums
tabs

 

1