Search tabs:
Browse artists: 0-9 | A | B | C | D | E | F | G | H | I | J | K | L | M | N | O | P | Q | R | S | T | U | V | W | X | Y | Z
/ Joe Satriani / The Extremist (1992) / Summer Song bass tab

Summer Song
by: Joe Satriani
tabbed by: Andy Patton (completely tabbed out by ear)

This song is mostly 8th note pedal tones.  It's pretty easy, but you'll
need some speed + endurance.  This tab is mostly right, minus a few
fills here and there.
Have Fun!

Verse 1

G-----------------------------------------------------------------------
D-----------------------------------------------------------------------
A-----------------------------------------------------------------------
E-5-5-5-5-5-5-5-5---5-5-5-5-5-5-5-5---5-5-5-5-5-5-5-5---5-5-5-5-5-5-0-3-

Verse 2

G-----------------------------------------------------------------------
D-----------------------------------------------------------------------
A-------------------------------------------------------------------2-2-
E-5-5-5-5-5-5-5-5---5-5-5-5-5-5-5-5---5-5-5-5-5-5-5-5---5-5-5-5-5-5-----

Verse 3

G-----------------------------------------------------------------------
D-----------------------------------------------------------------------
A-2-2-2-2-2-2-2-2-------------------------------------------------------
E-------------------3-3-3-3-3-3-3-3---5-5-5-5-5-5-5-5---5-5-5-5-5-5-5-5-

Chorus 1

G-----------------------------------------------------------------------
D-----------------------------------------------------------------------
A---------5-5-5-5---------------------------5-5-5-5---------------------
E-3-3-3-3---------5-5-5-5-5-5-5-5---3-3-3-3---------5-5-5-5-5-5-5-5-----

G-----------------------------------------------------------------------
D-----------------------------------3-3-3-3-------------5-5-5-5-5-5-5-5-
A---------3-3-3-3-----------------------------3-3-3-3-------------------
E-3-3-3-3---------5-5-5-5-5-5-5-5---------------------------------------

Chorus 2

G-----------------------------------------------------------------------
D-----------------------------------------------------------------------
A---------3-3-3-3-------------------------------------------------------
E-3-3-3-3---------5-5-5-5-5-5-5-5---------------------------------------

Chorus 3

G-----------------------------------------------------------------------
D-----------------------------------------------------------------------
A-----------3-----0-----------------------------------------------------
E-0----3------0-3-------------------------------------------------------

Solo 1

G-----------------------------------------------------------------------
D-----------------------------------------------------------------------
A-------------------------------------3-3-3-3-3-3-3-3---3-3-3-3-3-3-3-3-
E-3-3-3-3-3-3-3-3---3-3-3-3-3-3-3-3-------------------------------------

Solo 2

G-----------------------------------------------------------------------
D-----------------------------------------------------------------------
A-0-0-0-0-0-0-0-0---------------------0-0-0-0-0-0-0-0---0-0-0-0-0-0-0-0-
E-------------------2-2-2-2-2-2-2-2-------------------------------------

G-----------------------------------------------------------------------
D-----------------------------------------------------------------------
A-------------------------------------0-0-0-0-0-0-0-0---0-0-0-0-2-2-4-4-
E-2-2-2-2-2-2-2-2---2-2-2-2-2-2-2-2-------------------------------------

Solo 3

G-----------------------------------------------------------------------
D-----------------------------------------------------------------------
A-5-5-5-5-5-5-5-5---5-5-5-5-5-5-5-5---5-5-5-5-5-5-5-5---5-5-5-5-5-5-5-5-
E-----------------------------------------------------------------------

Solo 4

G-----------------------------------------------------------------------
D-2-2-2-2-2-2-2-2---2-2-2-2-2-2-2-2---2-2-2-2-2-2-2-2---2-2-4-4-5-5-7-7-
A-----------------------------------------------------------------------
E-----------------------------------------------------------------------

Break Fill

G-----------------------------------------------------------------------
D-----------------------------------------------------------------------
A-3/10----9--7--5/7-----------------------------------------------------
E-----------------------------------------------------------------------

End

G-----------------------------------------------------------------------
D------0--------------0-------------------------------------------------
A-----------0--------------0--------------------------------------------
E-3--------------3------------------------------------------------------

Order:

Verse 1 x6
Verse 2 x1
Verse 3 x1
Verse 1 x2
Verse 2 x1
Verse 3 x1
Chorus 1 x2
Chorus 2 x1
Chorus 3 x1
Solo 1 x4
Solo 2 x1
Solo 3 x1
Solo 4 x1
Verse 1 x2
Verse 2 x1
Verse 3 x1
Chorus 1 x2
Chorus 2 x1
Chorus 3 x2
{Guitar Break}
Break Fill
Verse 1 x13
End


Joe Satriani albums
2004 Is There Love in Space?
2002 Strange Beautiful Music
2000 Engines of Creation
1998 Crystal Planet
1995 Joe Satriani
1993 Time Machine
1992 The Extremist
1989 Flying in a Blue Dream
1987 Surfing With the Alien
1986 Not of This Earth
The Extremist tabs
01Friends tabbass tab
02The Extremist (Living on the Edge) tabbass tab
03War tabbass tab
04Cryin' tabbass tab
05Rubina's Blue Sky Happiness tabbass tab
06Summer Song tabbass tab
07Tears in the Rain tabbass tab
08Why tabbass tab
09Motorcycle Driver tabbass tab

 

1