Search tabs:
Browse artists: 0-9 | A | B | C | D | E | F | G | H | I | J | K | L | M | N | O | P | Q | R | S | T | U | V | W | X | Y | Z
/ Rage Against The Machine / Rage Against The Machine (1992) / Know Your Enemy bass tab

Know Your Enemy: RAGE AGAINST THE MACHINE

   As transcribed by Allen Canterbury
Corrections by: Cavan Papp
________________________________________________
Hopefully, this is close enough to the version played on the self-titled
Rage Against the Machine album to fool your audience.  This is how _I_ play
this song; if anyone has suggestions/improvements, PLEASE! let me know.  :)
I didn't fool with the timing or placement of notes relative to the beat.
If you have the album, figure it out.  Kewl.
________________________________________________


  T                  T
G:------------------------------------|
D:------------------------------------|
A:------------------------------------|
E:2--------r---------2--------r-------|
                                                   (4x)    (Bass Fill 1
     T      T  T       P           T      T  T        P     (Guitar)
G:---------------------4------------------------------4---|-----------|
D:*--------------------2------------------------------2--*|----r------|
A:*------------------------------------------------------*|-----------|
E:---2------0--2-------------------2------0--2------------|-----------|

G:-----------------------|
D:-----------------------|
A:--4-----2--------------|
E:--------------5-----0--|

    (Bass Fig. 1)
    (Bass Riff 1)
G:---------------------------------------------------------------------------|
D:*--------------------------------------------------------------------------|
A:*--------------0------------------------3--2--0----------------0-----------|
E:--0--2-2-2--2-----2--0--2--0--2-2-2--2------------0--2-2-2--2-----2--0--2--|


CORRECTION:
plays cords....
  1. (End Bass Riff 1)  2.  (End Bass Fig.1)
 |~~~~~~~~~~~~~~~~~    |~~~~~~~~~~~~~~~~
G:-------------------|---------------------||
D:6----4------------*|---------------------||
A:4----2----7-------*|---4----2------------||
E:----------5----0---|-------------5----(5)||

     (Bass Fig. 2)                                       (3x)
    |~~~~~~~~~~~~~~~~~~~~~~~~~~~~~~~~~~~~~~~~~~~~~~~~~~~~~~~~~|
G:-------------------------------------------------------------|
D:*--4-----------------------2-3-4----------------------------*|
A:*--------------0--2--3--4------------------0--2--3--2--0----*|
E:------2--0--2---------------------2--0--2----------------2---|

                                            (4x)
   Bass Fill 1   w/ Bass Fig. 1   w/ Bass Fig. 2
G:-------------|----------------|----------------|-------|
D:-|=========|-|-|============|-|-|============|-|---r---|
A:-------------|----------------|----------------|-------|
E:-------------|----------------|----------------|-------|

                                                                           (4
G:---------------------------------------------------------------------------|
D:*---------------------------------2----------------------------------------|
A:*--------------------------------------------------------------------3--2--|
E:---2-2-2---0-1-2-2-2---0-1-2-2-2-----2-2-2---0-1-2-2-2---0-1-2-2-2---------|

                                      I got no patience now....
CORRECTION:
Guitar Solo
G:---------------------------------------------------------------------|
D:--------------------------------------------------------6---4--------|
A:--------------0--------------------3--2--0--------------4---2---7----|
E:--0-2-2-2--2----2-0-2-0--2-2-2--2-----------0-2-2-2--2----------5--0-|


                                     Bass Fig. 2 w/ distortion (5x)
G:--------------------------------|----------------------------------|
D:--------------------------------|----------------------------------|
A:----5---(5)----5555-5---5----r--|----------------------------------|
E:---///--///---------------------|----------------------------------|
    trem. picking

_Know_Your_Enemy_ written by Rage Against The Machine
Property of Epic Associated.


Rage Against The Machine albums
2000 Renegades
1999 The Battle Of Los Angeles
1996 Evil Empire
1992 Rage Against The Machine
Rage Against The Machine tabs
01Bombtrack tabbass tab
02Killing In The Name tabbass tab
03Take The Power Back tabbass tab
04Settle For Nothing tabbass tab
05Bullet In The Head tabbass tab
06Know Your Enemy tabbass tab
07Wake Up tabbass tab
08Fistful Of Steel tabbass tab
09Township Rebellion tabbass tab
10Freedom tabbass tab

 

1