Search tabs:
Browse artists: 0-9 | A | B | C | D | E | F | G | H | I | J | K | L | M | N | O | P | Q | R | S | T | U | V | W | X | Y | Z
/ / / bass tab

Song: Under The Bridge
Artist: Red Hot Chili Peppers
Album: Blood Sugar Sex Magik (1992)

Words and Music by Anthony Kiedis, Flea, John Frusciante and Chad Smith

Bass: Tuning: EADG



 Intro      1st Verse
  Moderately Faster Q=83=69
                       Emaj7
 4/4
  Gtr I
|---------||---------|--------------|------------||
|---------||---------|--------------|------------||
|---------||---------|--------------|------------||
|---------||---------|-0-0-0-0-0----|-(0)--------||


 2nd Verse  1st Chorus
              F#mE           B     F#m            E
|---------||---------4-----|---4------------|---------4------|
|---------||--4--2-2---2---|-----2-4-4-4-4--|--4--2-2---2----|
|---------||-------------4-|-2--------------|-------------4--|
|---------||---------------|----------------|----------------|


  B     F#m                   E           B     F#m            E
|---4-------------------|---------4-----|---4------------|---------4------|
|-----2-4-4-(4)s6s4s6s4-|--4--2-2---2---|-----2-4-4-4-4--|--4--2-2---2----|
|-2---------------------|-------------4-|-2--------------|-------------4--|
|-----------------------|---------------|----------------|----------------|


  B     F#m      E   B          C#mG#mA     E   B           C#mA
|---4----------|--------------|-----------|--------------|-------------||
|-----2-4-4----|--------------|-----------|--------------|-------------||
|-2------------|-----2-(2)----|-------0---|-----2-(2)----|--4--0-0-----||
|--------------|-0------------|----4------|-0------------|-------------||


 3rd Verse
  E   B          C#mG#mA     E   B
|--------------|-----------|--------------|
|--------------|-----------|--------------|
|-----2-(2)----|-------0---|-----2-(2)----|
|-0------------|----4------|-0------------|


   C#mA        E   B          C#mG#mA
|------------|--------------|-----------|
|------------|--------------|-----------|
|--4--0-0----|-----2-(2)----|-------0---|
|------------|-0------------|----4------|


  E   B            C#mA          Emaj7
|---------------|------------|-7s9--------|-(9)----||
|---------------|------------|------------|--------||
|-----2-(2)---2-|--4--0-0----|------------|--------||
|-0-------------|------------|------------|--------||


 2nd Chorus
   F#mE           B     F#m                   E           B     F#m
|---------4-----|---4-------------------|---------4-----|---4-----------------|
|--4--2-2---2---|-----2-4-(4)-4s6-4-2-4-|--4--2-2---2---|-----2-4-(4)\--------|
|-------------4-|-2---------------------|-------------4-|-2-------------------|
|---------------|-----------------------|---------------|--------------2-2/---|


      E           B     F#m            E           B     F#m
|---------4-----|---4------------|---------4-----|---4--------------||
|--4--2-2---2---|-----2-4-4-4-4--|--4--2-2---2---|-----2-4-4-4-4-4--||
|-------------4-|-2--------------|-------------4-|-2----------------||
|---------------|----------------|---------------|------------------||


 Interlude
  A     Am/C          G6    Fmaj7                 A     Am/C
|-------5-(5)-------|---7-------------5-(5)-----|---9---5---9-----|
|---7-7-------7-5-7-|-5---5-3-(3)-5s7-------7-5-|-----7-------7---|
|-0-----------------|---------------------------|-0-------0-----0-|
|-------------------|---------------------------|-----------------|


  G6    Fmaj7                A     Am/C            G6    Fmaj7
|---7------------5---------|---9-----------------|---7-------------5-(5)------|
|-5---5-3-3--5s7---7-5-7-7-|-----7-10-(10)-7-5-7-|-5---5-3-(3)-5s7-------7-5--|
|--------------------------|-0-------------------|----------------------------|
|--------------------------|---------------------|----------------------------|


                             3rd Chorus
               E7    G        A     Am/C
|------------|-------------||---9---5-(5)-------|
|------------|-------------||-----7-------7-5-7-|
|------------|-------------||-0-----------------|
|-1--1--1----|-0--0--3--3--||-------------------|


  G6    Fmaj7                 A     Am          G6    Fmaj7
|---7-------------5-(5)-----|-----------9-----|---7------------5----------|
|-5---5-3-(3)-5s7-------7-5-|-------------7---|-5---5-3-3--5s7---7-5-7-7--|
|---------------------------|-0-0-0-0-0-----0-|---------------------------|
|---------------------------|-----------------|---------------------------|


  A     Am/C          G6    Fmaj7                 A     Am
|---9---5-(5)-------|---7-------------5-(5)-----|-----------9-----|
|-----7-------7-5-7-|-5---5-3-(3)-5-7-------7-5-|-------------7---|
|-0-----------------|---------------------------|-0-0-0-0-0-----0-|
|-------------------|---------------------------|-----------------|


  G6    Fmaj7                A     Am/C          G6    Fmaj7
|---7------------5---------|---9---5-(5)-------|---7-------------5-(5)------|
|-5---5-3-3--5s7---7-5-7-7-|-----7-------7-5-7-|-5---5-3-(3)-5s7-------7-5--|
|--------------------------|-0-----------------|----------------------------|
|--------------------------|-------------------|----------------------------|


  A     Am/C            G6    Fmaj7                A     Am/C
|---9---5-5-----9-----|---7------------5---------|---9---5-(5)-------|
|-----7-----7-7---7---|-5---5-3-3--5s7---7-5-7-7-|-----7-------7-5-7-|
|-0-----------------0-|--------------------------|-0-----------------|
|---------------------|--------------------------|-------------------|


  G6    Fmaj7                 A     Am          G6    Fmaj7
|---7-------------5-(5)-----|-----------------|---7------------5----------|
|-5---5-3-(3)-5s7-------7-5-|-----------------|-5---5-3-3--5s7---7-5-7-7--|
|---------------------------|-0-0-0-0-0-0-0-0-|---------------------------|
|---------------------------|-----------------|---------------------------|


 Outro
  A     Am/C          G6    Fmaj7bFmaj7           A    Am
|---9---5-(5)-------|---7-------------5-(5)-----|----9-----9-----|
|-----7-------7-5-7-|-5---5-3-(3)-5s7-------7-5-|------7-7---7---|
|-0-----------------|---------------------------|-0------------0-|
|-------------------|---------------------------|----------------|


  G6    Fmaj7bFmaj7           A     Am/C            G6    Fmaj7bFmaj7
|---7-------------5h7p5-----|---9-----------------|---7-------------5-(5)-----|
|-5---5-3-(3)-5s7-------7-5-|-----7-10-(10)-7-5-7-|-5---5-3-(3)-5s7-------7-5-|
|---------------------------|-0-------------------|---------------------------|
|---------------------------|---------------------|---------------------------|


  A    Am          G6    Fmaj7bFmaj7A
|----9-----9-----|---7------------|------*|
|--------7---7---|-5---5-3-(3)----|------*|
|-0----0-------0-|----------------|-0----*|
|----------------|----------------|------*|


albums
tabs

 

1