Search tabs:
Browse artists: 0-9 | A | B | C | D | E | F | G | H | I | J | K | L | M | N | O | P | Q | R | S | T | U | V | W | X | Y | Z
/ / / bass tab

----------------------------------------------------------------------------
			     Vermillion part 2 - Slipknot
----------------------------------------------------------------------------

Tabbed By : twist
e-mail: Crazy_guitar66@yahoo.com

Tuning:eadg

G|--------------------------------------------------------|
D|--------------------------------------------------------| intro/verse
A|----------------7-----6----6h7--------------------------|
E|----4-----6----------------------7-P-6------------------|

G|-----------------------------------------|
D|-----------------------------------------|  (i dont know what to do
A|------7----7-----7------7--7-------------|   when she makes me sad)
E|-----------------------------------------|

G|----------------------------------------|
D|----------------------------------------|  right after he say sad
A|----------------------------------------|
E|-----7---7-----7--7---7---------7-------|

G|----------------------------------------|
D|----------------------------------------| (i wont let this build up
A|----------------------------------------|     inside of me) thats a ten
E|-3------5-------7----------10-----------|

G|----------------------------------------|
D|----------------------------------------|
A|----------------------------------------|
E|----7--------7---7---------7---7------7-|


please rate this..... have fun


albums
tabs

 

1