Search tabs:
Browse artists: 0-9 | A | B | C | D | E | F | G | H | I | J | K | L | M | N | O | P | Q | R | S | T | U | V | W | X | Y | Z
/ / / bass tab

Artist: System Of A Down
Song: CIGARO
Album: Mesmerise
Tabbed By: martyr.
Tuning:C G C F

Intro/

F/-------------------------------------------------------
C/-------------------------------------------------------
G/----------------------------------7-6-4-6-4-2-4-2------
C/-1-1-2p1-1-1-2p1-1-1-2p1-1-1-2p1-----------------------

Intro/End

F/-------------------------------------------------------
C/-------------------------------------------------------
G/----------------------------------7-6-4-6-4-2-4-2------
C/--2p1-2p1-2p1-2p1-2p1-2p1-2p1-2p1----------------------

My C**K is much bigger than yours.

F/----------
C/----------
G/----------
C/1-1-1-----

F/----------------------------------------------------
C/----------------------------------------------------
G/--9898--6565--2121--666-----------------------------
C/----------------------------------------------------

Chorus: (cool in denial.....)

F/----------------------------------------------------
C/----------------------------------------------------
G/----------------------------------7-6-4-6-4-2-4-2---
C/-1-1-2p1-1-1-2p1-1-1-2p1-1-1-2p1--------------------

F/----------------------------------------------------
C/----------------------------------------------------
G/--6-6-6---------------------------------------------
C/----------------------------------------------------

Bridge:

F/----------------------------------------------------
C/----------------------------------------------------
G/-767676767676767676767676767676-----7-6-4-6-4-2-4-2-
C/----------------------------------------------------

cant u see that i love my ZIB

F/---3---3---3---3------------------------------------
C/----------------------------------------------------
G/-1---1---1---1--------------------------------------
C/----------------------------------------------------

F/----------------------------------------------------
C/----------------------------------------------------
G/----------------------------------------------------
C/-12/8-------8/5--------5/3--------------------------

were the regulators that deregulate

F/---------------------------------------1~-----------
C/----------------------------------------------------
G/--9898-11-10-11-10-6565-7676-212121 ----------------
C/----------------------------------------------------

F/----------------------------------------------------
C/----------------------------------------------------
G/---------------------666----------------------------(play along with the drums)
C/-111-111-111-111------------------------------------

                           .......The end........


albums
tabs

 

1