Search tabs:
Browse artists: 0-9 | A | B | C | D | E | F | G | H | I | J | K | L | M | N | O | P | Q | R | S | T | U | V | W | X | Y | Z
/ / / bass tab

Band- System Of A Down
Song- Old School Hollywood

Tuning: Drop Db (Db Ab Db Gb)



intro:

Gb|----------------------------------------------------------------||
Db|-1-5---1-5---1-5---1-5------------------------------------------||
Ab|----------------------------------------------------------------||
Db|----------------------------------------------------------------||


Gb|----------------------------------------------------------------||
Db|----------------------------------------------------------------||
Ab|----------------------------------------------------------------||
Db|-0-5-7-5-8-5-7-5------------------------------------------------||(x8)

verse:

Gb|-0-5-7-5-8-5-7-5-0-5-7-5-8-5-7-5--------------------------------||
Db|---------------------------------0-5-7-5-8-5-7-5-0-5-7-5-8-5-7-5||
Ab|----------------------------------------------------------------||
Db|----------------------------------------------------------------||(x2)

pre-chorus:

Gb|----------------------------------------------------------------||
Db|----------------------------------------------------------------||
Ab|-6-6-6-6-6-6-6-6-5-5-5-5-5-5-5-5-6-6-6-6-6-6-6-6-8-8-8-8-8-8-8-8||
Db|----------------------------------------------------------------||(x2)

chorus:

Gb|----------------------------------------------------------------||
Db|----------------------------------------------------------------||
Ab|----------------------------------------------------------------||
Db|-0-5-7-5-8-5-7-5-0-5-7-5-8-5-7-5-0-5-7-5-8-5-7-5-0-5-7-5-8-7-5-3||


Gb|----------------------------------------------------------------||
Db|----------------------------------------------------------------||
Ab|---------5---3--------------------------------------------------||
Db|-1---1-----------0---0---4---7----------------------------------||

bridge:

Gb|-8-8-8-8-8-8-8-8-7-7-7-7-7-7-7-7-8-8-8-8-8-8-8-8----------------||
Db|----------------------------------------------------------------||
Ab|----------------------------------------------------------------||
Db|----------------------------------------------------------------||


Gb|-10-10-10-10-10-10-10-10-8-8-8-8-8-8-8-8-7-7-7-7-7-7-7-7--------||
Db|----------------------------------------------------------------||
Ab|----------------------------------------------------------------||
Db|----------------------------------------------------------------||


Gb|-8-8-8-8-8-8-8-8-10-10-10-10-10-10-10-10-10-10-10-10-10-10-10-10||
Db|----------------------------------------------------------------||
Ab|----------------------------------------------------------------||
Db|----------------------------------------------------------------||



Gb|10-10-10-10-10-10-10-10-10-10-10-10-10-10-10-10-----------------||
Db|----------------------------------------------------------------||
Ab|----------------------------------------------------------------||
Db|----------------------------------------------------------------||


albums
tabs

 

1