Search tabs:
Browse artists: 0-9 | A | B | C | D | E | F | G | H | I | J | K | L | M | N | O | P | Q | R | S | T | U | V | W | X | Y | Z
/ / / bass tab

Band: system of a down
Album: mezmerize
Song: Question
Bassist: Shavo Odadjian
By:Pat Falance
Tuning:CGCF (Low to High)



P= pull off	
H=hammer on


Guitar intro-(0:00-0:15)

Main Riff-(0:16-0:22) (1:16-1:19) (2:09-2:15) (3:02-3:09) (3:16-3:20)
F----------------------------------------------------------------------------------------------------------
C----------------------------------------------------------------------------------------------------------
G--------6p4---------------------------------------------------------------------------------------------
C-----4-------6----7h9-6h8---------------------------------------------------------------------------

Second main riff- (0:23-0:29) (2:15-2:28)
F----------------------------------------------------------------------------------------------------------
C---------------------------------------------------------------------------------------------------------
G-----------6-6--4-4------------------------------------------------------------------------------------
C-----4-4--------------7h9-6h8-----------------------------------------------------------------------

All palm muted and super fast- (0:32-0:45) (1:20-1:33)
F----------------------------------------------------------------------------------------------------------
C----------------------------------------------------------------------------------------------------------
G--------------66---4444-------------------------------------------------------------------------------
C-----444------------------------------------------------------------------------------------------------

Pre chorus- (0:50-0:58) (1:38-1:46)
F----------------------------------------------------------------------------------------------------------
C----------------------------------------------------------------------------------------------------------
G---------------------------------------------------------------------------------------------------------
C-----4---6----4----3------------------------------------------------------------------------------------

Chorus-2x-(0:59-1:15) (1:47-2:04)
F---------------------------------------------------------------------------------------------------------
C---------------------------------------------------------------------------------------------------------
G----------6p4--------6p4--------6p4--------6p4--------6p4--------6p4----------------------------
C--4-4-4-------4-4-4------4-4-4----- 4-4-4------4-4-4------4-4-4----------9-9-9h11-11---------



F----------------------------------------------------------------------------------------------------------
C----------------------------------------------------------------------------------------------------------
G---------------------------------------------------------------------------------------------------------
C--12p11-11-11p9-------------------------------------------------------------------------------------

Verse-2x-(2:34-3:02)
F----------------------------------------------------------------------------------------------------------
C----------------------------------------------------------------------------------------------------------
G---------------------------------------------------------------------------------------------------------
C----4-4444-0--------4-4444-0--------------4-4444-0--------------4-4444-0----------------------

F----------------------------------------------------------------------------------------------------------
C----------------------------------------------------------------------------------------------------------
G---------------------------------------------------------------------------------------------------------
C---666666666666666666666666------------------------------------------------------------------

This is my first tab
Please rate
Send corrections to patfalance@yahoo.com


albums
tabs

 

1