Search tabs:
Browse artists: 0-9 | A | B | C | D | E | F | G | H | I | J | K | L | M | N | O | P | Q | R | S | T | U | V | W | X | Y | Z
/ / / bass tab

Band- System Of A Down
Song- Radio/Video
Album- Mesmerize

Tuning: Standard (E A D G)

not sure on the tuning

Verse
G|----------------------------------------------------------------||
D|----------------------------------------------------------------||
A|----------------------------------------------------------------||
E|6-6--8-8--9-9-9-9-9-10-9-8-8-8-8-8------------------------------||

G|----------------------------------------------------------------||
D|----------------------------------------------------------------||
A|----------------------------------------------------------------||
E|6-6--8-8--9-9-9-9-9-14-13-12-12-12-12-12------------------------||x2

G|----------------------------------------------------------------||
D|----------------------------------------------------------------||
A|----------------------------------------------------------------||
E|13-12-10-8-7-5--------------------------------------------------||

chorus
G|----------------------------------------------------------------||
D|----------------------------------------------------------------||
A|----------------------------------------------------------------||
E|5-5-5-5-5-5-5-5-5-5-5-5-5-5-5-5--3-3-3-3-3-3-3-3-3-3-3-3-3-3-3--||x4

Verse
G|----------------------------------------------------------------||
D|----------------------------------------------------------------||
A|----------------------------------------------------------------||
E|6-6--8-8--9-9-9-9-9-10-9-8-8-8-8-8------------------------------||

G|----------------------------------------------------------------||
D|----------------------------------------------------------------||
A|----------------------------------------------------------------||
E|6-6--8-8--9-9-9-9-9-14-13-12-12-12-12-12------------------------||x2

G|----------------------------------------------------------------||
D|----------------------------------------------------------------||
A|----------------------------------------------------------------||
E|13-12-10-8-7-5--------------------------------------------------||

chorus
G|----------------------------------------------------------------||
D|----------------------------------------------------------------||
A|----------------------------------------------------------------||
E|5-5-5-5-5-5-5-5-5-5-5-5-5-5-5-5--3-3-3-3-3-3-3-3-3-3-3-3-3-3-3--||x4
Begin to fade from 3rd time to fourth.

Bridge
G|----------------------------------------------------------------||
D|----------------------------------------------------------------||
A|----------------------------------------------------------------||
E|0-3-5-5--10-9-8--3-5-6-6--14-13-12--13-12-10-8-7-5--------------||

G|----------------------------------------------------------------||
D|----------------------------------------------------------------||
A|----------------------------------------------------------------||
E|5-5-5-5-5--5-5-5-5-5--5-5-5-5-5--5-5-5-5-5-6--------------------||

G|----------------------------------------------------------------||
D|----------------------------------------------------------------||
A|----------------------------------------------------------------||
E|3-3-3-3-3--3-3-3-3-3--3-3-3-3-3--3-3-3-3-3-6--------------------||x2
Increasing in speed each time played

Bridge 2
G|----------------------------------------------------------------||
D|----------------------------------------------------------------||
A|----------------------------------------------------------------||
E|5-5-5-5--5-5-5-5--5-5-5-5--5-5-5-5-4----------------------------||

G|----------------------------------------------------------------||
D|----------------------------------------------------------------||
A|----------------------------------------------------------------||
E|3-3-3-3--3-3-3-3--3-3-3-3--3-3-3-3-6----------------------------||

G|----------------------------------------------------------------||
D|----------------------------------------------------------------||
A|----------------------------------------------------------------||
E|5-5-5-5--5-5-5-5--5-5-5-5--5-5-5-5-6----------------------------||

G|----------------------------------------------------------------||
D|----------------------------------------------------------------||
A|----------------------------------------------------------------||
E|3-3-3-3--3-3-3-3--3-3-3-3--3-3-3-3-6----------------------------||

G|----------------------------------------------------------------||
D|----------------------------------------------------------------||
A|----------------------------------------------------------------||
E|5-5--5-5--5-5--5-5-6--3-3--3-3--3-3--3-3-6----------------------||x3
Increase in speed

chorus
G|----------------------------------------------------------------||
D|----------------------------------------------------------------||
A|----------------------------------------------------------------||
E|5-5-5-5-5-5-5-5-5-5-5-5-5-5-5-5--3-3-3-3-3-3-3-3-3-3-3-3-3-3-3--||x4

Verse
G|----------------------------------------------------------------||
D|----------------------------------------------------------------||
A|----------------------------------------------------------------||
E|6-6--8-8--9-9-9-9-9-10-9-8-8-8-8-8------------------------------||

G|----------------------------------------------------------------||
D|----------------------------------------------------------------||
A|----------------------------------------------------------------||
E|6-6--8-8--9-9-9-9-9-14-13-12-12-12-12-(13-12-10-8-7-5-5-5-5-5-5-||x2


G|----------------------------------------------------------------||
D|----------------------------------------------------------------||
A|----------------------------------------------------------------||
E|5-5/10-10-10-10-10-10-10)----------------------------------------||
second time only:()


albums
tabs

 

1