Search tabs:
Browse artists: 0-9 | A | B | C | D | E | F | G | H | I | J | K | L | M | N | O | P | Q | R | S | T | U | V | W | X | Y | Z
/ / / bass tab

Band – System Of A Down
Song – Soldier side (Intro)
Album – Mesmerize
Bassist – Shavo
Standard Tuning

|-13----13----12----12----|-15------------13----|
|-------------------------|---------------------|
|-------------------------|---------------------|
|----12----------11----11-|----14------12----12-|

|-12----12----12----12----|-10~~~~~~~-----------|
|-------------------------|---------------------|
|-------------------------|---------------------|
|----11----11----11----11-|-9~~~~~~~~----12--10-|
					Wel -

|--------------------------|------------------------|
|--------------------------|------------------------|
|--------------------------|------------------------|
|-(10)~~~~--12-10-------13-|-12~~~~---12-10------13-|
  Come ~~~~~~~~~~~~~	    To the soldier side.

|---------------------|-----------------------------|
|---------------------|-----------------------------|
|---------------------|-----------------------------|
|-12~~~~~~~~~~~----12-|10~~~~~~----12~~~~~~~~~~~~~~-|
	Where there’s no one here but meeeeeeeeeeeeee

|--------------------|--------------------------|
|--------------------|--------------------------|
|--------------------|--------------------------|
|-(12)~~~-----12--10-|-(10)~~~~--12-10-------13-|
    eeeeeee.      Peo - ple ~~~~~~~~~~~~     All

|------------------------|---------------------|
|------------------------|---------------------|
|------------------------|---------------------|
|12~~~~---12-10-------13-|-12~~~~~~~~~~~----12-|
 grow  up to die                There  is   no

|-----------------------------|-------------|
|-----------------------------|-------------|
|-----------------------------|-------------|
|10~~~~~~----12~~~~~~~~~~~~~~-|-(12)~~~~~~~-|
 one here but meeeeeeeeeeeeeeeeeeeeeeeeeeee.

|----13----13---12----12-|---12/14----------13----|
|------------------------|------------------------|
|------------------------|------------------------|
|-12----12---------13----|-11------------12----12-|
   oooooooooooooooooooooooooooooooooooooooooooo

|-12----12----13----13----|-15----15----15----15----|
|-------------------------|-------------------------|
|-------------------------|-------------------------|
|----12----12----12----12-|----14----14----14----14-|
  Oooooooooooooooooooooh           (*go quieter at end)

This is an awesome intro song and BYOB is not the same without it! LOL!
Have Fun!!


albums
tabs

 

1