Search tabs:
Browse artists: 0-9 | A | B | C | D | E | F | G | H | I | J | K | L | M | N | O | P | Q | R | S | T | U | V | W | X | Y | Z
/ / / bass tab

system of a  down - this cocaine makes me feel like i'm on this song
Tabbed By: viloent_pornographer
Email: don't_touch_my_belt@hotmail.com

Tuning: Standard (E A D G)



Intro
G|----------------------------------------------------------------||
D|----------------------------------------------------------------||
A|----------------------------------------------------------------||
E|5-5--3-6-5-5--3-5-6-6--8-6-5-5----------------------------------||

Verse
G|----------------------------------------------------------------||
D|----------------------------------------------------------------||
A|----------------------------------------------------------------||
E|3-6-5-5--3-6-5-5--3-5-6-6--8-6-5-5------------------------------||(x2)

Chorus
G|----------------------------------------------------------------||
D|----------------------------------------------------------------||
A|----------------------------------------------------------------||
E|3-6--6-6-5-8-6-6-5--6-6-5-8-6-6-5--6-6-5-8-6-6-5--6-6-5-8-6-6-5-||

G|----------------------------------------------------------------||
D|----------------------------------------------------------------||
A|----------------------------------------------------------------||
E|6-6-5-8-6-6-5--6-6-5-8-6-6-5--6-6-5-8-6-6-5--6-6-5-8-6-6-5------||

G|----------------------------------------------------------------||
D|----------------------------------------------------------------||
A|----------------------------------------------------------------||
E|5--6--6-6-6-6-6--5-5-5-5-5-5-5-5-5-5-5-5-5-5-5-5--6--6-6-6-6-6--||

Chorus 1
G|----------------------------------------------------------------||
D|----------------------------------------------------------------||
A|----------------------------------------------------------------||
E|6-6-5-8-6-6-5--6-6-5-8-6-6-5--6-6-5-8-6-6-5--6-6-5-8-6-6-5------||

G|----------------------------------------------------------------||
D|----------------------------------------------------------------||
A|----------------------------------------------------------------||
E|6-6-5-8-6-6-5--6-6-5-8-6-6-5--6-6-5-8-6-6-5--6-6-5-8-6-6-5------||

Verse
G|----------------------------------------------------------------||
D|----------------------------------------------------------------||
A|----------------------------------------------------------------||
E|(3-6)-5-5--3-6-5-5--3-5-6-6--8-6-5-5------------------------------||(x2)
(Play second Time Only)
Chorus
G|----------------------------------------------------------------||
D|----------------------------------------------------------------||
A|----------------------------------------------------------------||
E|3-6--6-6-5-8-6-6-5--6-6-5-8-6-6-5--6-6-5-8-6-6-5--6-6-5-8-6-6-5-||

G|----------------------------------------------------------------||
D|----------------------------------------------------------------||
A|----------------------------------------------------------------||
E|6-6-5-8-6-6-5--6-6-5-8-6-6-5--6-6-5-8-6-6-5--6-6-5-8-6-6-5------||

G|----------------------------------------------------------------||
D|----------------------------------------------------------------||
A|----------------------------------------------------------------||
E|5--6--6-6-6-6-6--5-5-5-5-5-5-5-5-8-8-8-8-6-6-6-6-5-5-5-5-3-3-5-5||

G|----------------------------------------------------------------||
D|----------------------------------------------------------------||
A|----------------------------------------------------------------||
E|6--6-6-6-6-6----------------------------------------------------||

Chorus 1
G|----------------------------------------------------------------||
D|----------------------------------------------------------------||
A|----------------------------------------------------------------||
E|6-6-5-8-6-6-5--6-6-5-8-6-6-5--6-6-5-8-6-6-5--6-6-5-8-6-6-5------||

G|----------------------------------------------------------------||
D|----------------------------------------------------------------||
A|----------------------------------------------------------------||
E|6-6-5-8-6-6-5--6-6-5-8-6-6-5--6-6-5-8-6-6-5--6-6-5-8-6-6-5------||

Outro
G|----------------------------------------------------------------||
D|----------------------------------------------------------------||
A|----------------------------------------------------------------||
E|(3-6)-5-5--3-6-5-5--3-5-6-6--8-6-5-5----------------------------||(x2)
(second Time)

G|----------------------------------------------------------------||
D|----------------------------------------------------------------||
A|----------------------------------------------------------------||
E|3-6-5-----------------------------------------------------------||


albums
tabs

 

1