Search tabs:
Browse artists: 0-9 | A | B | C | D | E | F | G | H | I | J | K | L | M | N | O | P | Q | R | S | T | U | V | W | X | Y | Z
/ / / bass tab

Artist: System Of A Down
Song: Violent Pronography

Tuning: SOAD Standard Tuning Db Ab Db Gb

I Think this Tab is nearly correct. Only in the Bridge Part I\'m not so sure...so E-Mail me if you have any corrections!
I haven\'t tabbed the timing fully out but if you listen to the Song you will figure it out!
Thanks To Kornaholic for correction on the Tuning (it sounds better now!)


INTRO 2x

Gb|---------------------------|
Db|---------------------------|
Ab|---------------------------|
Db|-1~--5~--6~--8~--9~--11~12~|


VERSE 2x

Gb|--------------------|
Db|--------------------|
Ab|--------------------|
Db|-1-2--2-3--3-2--2-1-|


PRE-CHORUS

Gb|----------------------------------------------|
Db|----------------------------------------------|
Ab|----------------------------------------------|
Db|-1-1--1---1-1-111--1---1-1-111--1---11-2-4-5--|

Gb|----------------------------------------------|
Db|----------------------------------------------|
Ab|----------------------------------------------|
Db|-1-1--1---1-1-111--1---1-1-111--1---11-5-4-2--|

Gb|-------------------------------------------|
Db|-------------------------------------------|
Ab|-------------------------------------------|
Db|-1-1--1------1111-1-----1111-1---11-2-4-5--|

Gb|--------------------------------------|
Db|--------------------------------------|
Ab|--------------------------------------|
Db|-1-1--1---1111-1-1111-1-111111-2-4-2--|


CHORUS

Gb|----------------------------------|
Db|----------------------------------|
Ab|----------------------------------|
Db|-1~--5~--6~--8~--9~--11~--13~--9~-|

Gb|----------------------------------------------------------------------------------------------|
Db|----------------------------------------------------------------------------------------------|
Ab|----------------------------------------------------------------------------------------------|
Db|-1-111111--5-555555--6-666666--8-888888--9-999999--11-111111111111--13-131313131313--9-999999-|


VERSE 2x

PRE-CHORUS

CHORUS 2

Gb|-----------------------------------|
Db|-----------------------------------|
Ab|-----------------------------------|
Db|-1~--5~--6~--8~--9~--11~--13~--9~--| 2x

Gb|----------------------------------------------------------------------------------------------|
Db|----------------------------------------------------------------------------------------------|
Ab|----------------------------------------------------------------------------------------------|
Db|-1-111111--5-555555--6-666666--8-888888--9-999999--11-111111111111--13-131313131313--9-999999-| 2x

Gb|--------------------------------------------|
Db|--------------------------------------------|
Ab|--------------------------------------------|
Db|-1~--5~--6~--8~--9~--11~--13~--9~--13~--9~--|


ENDING

Gb|----------------------------|
Db|----------------------------|
Ab|----------------------------|
Db|-1~--5~--6~--8~--9~--11~13~-|

Gb|----------------------------------------------|
Db|----------------------------------------------|
Ab|----------------------------------------------|
Db|-1~--5~--6~--8~--9~--11~--13~--9~-|


albums
tabs

 

1