Search tabs:
Browse artists: 0-9 | A | B | C | D | E | F | G | H | I | J | K | L | M | N | O | P | Q | R | S | T | U | V | W | X | Y | Z
/ Tiamat / Judas Christ (2002) / Too Far Gone bass tab

Tiamt: Too far gone
From the album: Judas Christ
Tabbed by: Derrick Morris

Standard tuning E A D G


G------------------------------------------------------------------
D------------------------------------------------------------------
A--0-0-0-0-0-0---3-3-3-3-3-3---------------------------------------
E---------------------------------------3-3-3-3-3-3---1-1-1-1-1-1--
Verses


G---------------------------------------------------------------------------------
D---------------------------------------------------------------------------------
A--3-3-3-3-3-3-3-3-3-3-3-3-3-3-3--------------------------------------------------
E----------------------------------------------1-1-1-1-1-1-1-1---0-0-0-0-0-0-0-0--
Chorus


Tiamat albums
2004 Prey
2002 Judas Christ
1997 A Deeper Kind of Slumber
1994 Wildhoney
1992 Clouds
1991 The Astral Sleep
Judas Christ tabs
01The Return of the Son of Nothing tabbass tab
02So Much for Suicide tabbass tab
03Vote for Love tabbass tab
04The Truth's for Sale tabbass tab
07Love Is as Good as Soma tabbass tab
08Angel Holograms tabbass tab
09Spine tabbass tab
11Heaven of High tabbass tab
12Too Far Gone tabbass tab

 

1