Search tabs:
Browse artists: 0-9 | A | B | C | D | E | F | G | H | I | J | K | L | M | N | O | P | Q | R | S | T | U | V | W | X | Y | Z
/ Bright Eyes / Fevers & Mirrors (2000) / Sunrise, Sunset guitar tab

Bright eyes
sunrise,sunset.


      h - hammer on
      p - pull off
      b - bend string up
      r - release bend
      / - slide up
       - slide down
      v - vibrato (sometimes written as ~)
      t - right hand tap
      x - play 'note' with heavy damping

This is song pretty. the only thing is that there are 3 guitars playing during the verse.
i dont know all the part so ill only post what i know


Intro/verse

E.------5--5-----5--5-----5--5-----5--5-
B.------5--5-----5--5-----5--5-----5--5-
G.------5--5-----5--5-----5--5-----5--5-
D.---7--------6--------7--------6-------
A.--------------------------------------
E.--------------------------------------

thats for the whole song

lead 1
E----------------------------------------------------------------
B-----------9---10/12/10--9-9h10p9-------------------------------
G----9h10p9------------------------10-9-7---9-10-----------------
D-7--------------------------------------------------------------
A----------------------------------------------------------------
E----------------------------------------------------------------


this lead goes over the verse part righ after "you lying while you confess....."


E----------------------------------------------------------------
B-----------------17--------------17-----------------------------
G----9h10p9/14--17--17-16-14-16-17--17-16-14(repeat this part)---
D-7----------------------------------------------a few tiems-----
A----------------------------------------------------------------
E----------------------------------------------------------------

chorus

these are the chords.strum the Em for a lil bit.

E--0---------0--------0-----------------------
B--0---------1--------3-----------------------
G--1---------2--------2-----------------------
D--2---------2--------2-----------------------
A--2---------0--------0-----------------------
E--0---------0--------0-----------------------

a second guitar plays these chords over that.

E--0------------------------------------------
B--0---------5--------5-----------------------
G--1---------5--------7-----------------------
D--2---------7--------6-----------------------
A--2------------------------------------------
E--0------------------------------------------

the rest of the song is the same except for the lead coming into the chours
which i am yet to figure out and the flute lead.


Bright Eyes albums
2005 I'm Wide Awake, It's Morning
2005 Digital Ash in a Digital Urn
2002 Lifted or the Story Is in the Soil, Keep Your Ear to the Ground
2000 A Collection of Songs: Recorded 1995-1997
2000 Fevers & Mirrors
1998 Letting Off the Happiness
Fevers & Mirrors tabs
01A Spindle, A Darkness, A Fever, And a Necklace tabbass tab
03The Calendar Hung Itself... tabbass tab
04Something Vague tabbass tab
05The Movement of a Hand tabbass tab
06Arienette tabbass tab
07When the Curious Girl Realizes She Is Under Glass tabbass tab
08Haligh, Haligh, A Lie, Haligh tabbass tab
09The Center of the World tabbass tab
10Sunrise, Sunset tabbass tab
11An Attempt to Tip the Scales tabbass tab
12A Song to Pass the Time tabbass tab

 

1