Search tabs:
Browse artists: 0-9 | A | B | C | D | E | F | G | H | I | J | K | L | M | N | O | P | Q | R | S | T | U | V | W | X | Y | Z
/ Foo Fighters / In Your Honor (2005) / Free Me guitar tab

Foo Fighters
Free Me (7 on CD 1)
In Your Honor (2005)
Tabbed by JT (foofighter13)
June 11, 2005


Beginning and Verse
E|---------0---------0---------0-------------|
B|---------0---------0---------0-------------|
G|-------------------------------------------|
D|-------------------------------------------|
A|-------------------------------------------|
E|-0-0-7-0---0-0-7-0---0-0-7-0---0-0-7-0-6-5-|

For the Beginning, Guitar 2 Plays This
E|---------------------------------------------|
B|---------------------------------------------|
G|---------------------------------------------|
D|---------------------------------------------|
A|---------------------------------------------|
E|---------------------------------------6-5-0-|

E|----------------------------------|
B|----------------------------------|
G|----------------------------------|
D|----------------------------------|
A|----------------------------------|
E|-0-0-7-0-6-5--0-0-7-0-6-5--5/13/6-|

Riff
E|----------------------------------------------|
B|----------------------------------------------|
G|----------------------------------------------|
D|----------------------------------------------|
A|---------7^---------7^---------7^-------------|
E|-0-0-7-0----0-0-7-0----0-0-7-0----0-0-7-0-6-5-|

Chorus
Guitar 1
E|-------------------------------------------------------------------------------------------------|
B|-------------------------------------------------------------------------------------------------|
G|-------------------------------------------------------------------------------------------------|
D|-5-5-5-5-5-5-5-5-5-5-5-5-7-7-7-7-7-7-7-7-7-7-7-7-6-6-6-6-6-6-6-6-6-6-6-6-2-2-2-2-2-2-2-2-2-2-2-2-|
A|-5-5-5-5-5-5-5-5-5-5-5-5-7-7-7-7-7-7-7-7-7-7-7-7-6-6-6-6-6-6-6-6-6-6-6-6-2-2-2-2-2-2-2-2-2-2-2-2-|
E|-3-3-3-3-3-3-3-3-3-3-3-3-5-5-5-5-5-5-5-5-5-5-5-5-4-4-4-4-4-4-4-4-4-4-4-4-0-0-0-0-0-0-0-0-0-0-0-0-|

Guitar 2
E|-----------0-----------0-----------0-----------0-----------0-----------0-----------0-----------0-|
B|--------0-----------0-----------0-----------0-----------0-----------0-----------0-----------0----|
G|-------------------------------------------------------------------------------------------------|
D|-5---5-------5---5-------7---7-------7---7-------6---6-------6---6-------2---2-------2---2-------|
A|-5---5-------5---5-------7---7-------7---7-------6---6-------6---6-------2---2-------2---2-------|
E|-3---3-------3---3-------5---5-------5---5-------4---4-------4---4-------0---0-------0---0-------|

Breakdown
Guitar 1
E|----------------------------------------------------------------------|
B|----------------------------------------------------------------------|
G|-5-5-5-5-4^-5-5-5-5-4^-7-7-7-7----7-7-7-7-----------------------------|
D|-5-5-5-5----5-5-5-5----7-7-7-7-5^-7-7-7-7-5^-777777777777777777777777-|
A|-3-3-3-3----3-3-3-3----5-5-5-5----5-5-5-5----777777777777777777777777-|
E|---------------------------------------------555555555555555555555555-|

Guitar 2 (Skip the Slide the 2nd Time Around, Both Times)
E|--------------------------------------------------------------------------|
B|--------------------------------------------------------------------------|
G|-5-5-5-5-4^-5-5-5-5-4^-7-7-7-7----7-7-7-7---------4^----4^----4^----------|
D|-5-5-5-5----5-5-5-5----7-7-7-7-5^-7-7-7-7-5^--00-4--00-4--00-4------------|
A|-3-3-3-3----3-3-3-3----5-5-5-5----5-5-5-5---------------------------------|
E|---------------------------------------------------------------------13/4-|

Add This in Place of the 2nd Slides of the Breakdown
(Also Used Elsewhere in the Song)
E|-------------------|
B|-------------------|
G|-------------------|
D|-------------------|
A|-------------------|
E|-7-7-6-6-5-5-3-3-0-|

Final Riff
E|----------------------------------------------------|
B|----------------------------------------------------|
G|----------------------------------------------------|
D|----------------------------------------------------|
A|---------7^---------7^---------7^-------------------|
E|-0-0-7-0----0-0-7-0----0-0-7-0----7-7-6-6-5-5-3-3-0-|

Ending Bit
E|---------------------------0-|
B|---------------------------5-|
G|---------------------------4-|
D|---------------------------2-|
A|-----------------------------|
E|-0-0-7-0-6-5---0-0-7-0-6-5---|

Finally got around to typing this up, I hope I remembered everything, if
not I'll just add it in later.  Questions? - johnnyisrotten@comcast.net
Just added the ending, forgot to put that in, also - you have to listen
to the strumming pattern for the Guitar 2 Chorus, it's got weird strumming.


Foo Fighters albums
2005 In Your Honor
2002 One by One
1999 There Is Nothing Left To Lose
1997 The Colour & The Shape
1995 Foo Fighters
In Your Honor tabs
01In Your Honor tabbass tab
02No Way Back tabbass tab
03Best of You tabbass tab
04DOA tabbass tab
05Hell tabbass tab
06The Last Song tabbass tab
07Free Me tabbass tab
08Resolve tabbass tab
09The Deepest Blues Are Black tabbass tab
10End Over End tabbass tab
12Still tabbass tab
13What If I Do? tabbass tab
14Miracle tabbass tab
15Another Round tabbass tab
16Friend of a Friend tabbass tab
17Over and Out tabbass tab
18On the Mend tabbass tab
19Virginia Moon tabbass tab
20Cold Day in the Sun tabbass tab
21Razor tabbass tab

 

1