Search tabs:
Browse artists: 0-9 | A | B | C | D | E | F | G | H | I | J | K | L | M | N | O | P | Q | R | S | T | U | V | W | X | Y | Z
/ Howie Day / Australia (2002) / Ghost guitar tab

ghost
howie day
australia (2000)
transcribed: anthony g page <044287p@acadiau.ca>
Posted by: Olcrazylegs
11.12.00

e |----0------0---0--0---0---0---0------0----------0---0--0---0---0---0--
b |----5------0---0--0---0---0---0------5----------0---0--0---0---0---0--
g |----6------6---6--1---2---1---2------6----------6---6--1---2---1---2--
d |----6------7------2---2---2---2------6----------7------2---2---2---2--
a |-4--4------7------2---2---2---2------4------7---7------2---2---2---2--
E |-------4---5---7--0---0---0---0---------4---5---5---7--0---0---0---0--


e |--0----------------------------0------------------------------0---0---0---0--
b |--5----------------------------0-----------------------0------0---0---0---0--
g |--6----------------------------6-----------------------6------1---2---1---2--
d |--6----------------------------7------------------------------2---2---2---2--
a |--4----------------------------7------------------------------2---2---2---2--
E |---------------------------4---5-----------------------7------0---0---0---0--
   lately i've been thinking,   lately i've been dreaming with you

e |-------0-----------------------------------0----------------------0-----0---0---2--
b |-------5-----------------------------------0----------------0-----0-----0---0---0--
g |-------6-----------------------------------6----------------6-----1-----2---1---1--
d |-------6-----------------------------------7----------------------2-----2---2---2--
a |-------4-----------------------------------7----------------------2-----2---2---2--
E |---------------------------------------4---5----------------7-----0-----0---0---0--
   i'm so resistant to this type of thinking, oh now, it's shining through

e |-------0------------------------0-----------------------------0-----0---0---2--
b |-------5------------------------0-----------------------0-----0-----0---0---0--
g |-------6------------------------6-----------------------6-----1-----2---1---1--
d |-------6------------------------7-----------------------------2-----2---2---2--
a |-------4------------------------7-----------------------------2-----2---2---2--
E |----------------------------4---5-----------------------7-----0-----0---0---0--
   i was alone for the last time before my nights vacation with you

e |--0----------------------------0----------------------0-----0---0---2--
b |--5----------------------------0------------------0---0-----0---0---0--
g |--6----------------------------6------------------6---1-----2---1---1--
d |--6----------------------------7----------------------2-----2---2---2--
a |--4----------------------------7----------------------2-----2---2---2--
E |-------------------------4-----5------------------7---0-----0---0---0--
   alive from the first now i'm denied by the ghost of   you

e |-------0------------------------------0----------------0-----0---0---0---2---
b |-------5------------------------------0----------------0-----0---2---0---0---
g |-------6------------------------------6----------------1-----2---1---1---1---
d |-------6------------------------------7----------------2-----2---2---2---2---
a |-------4------------------------------7----------------2-----2---2---2---2---
E |--------------------------------------5----------------0-----0---0---0---0---
   oh you take yourself a photograph and laugh at me   please

e |---------------0------------------
b |---------------0------------------
g |---------------6------------------
d |---------------6------------------
a |---------------4------------------
E |----------------------------------
   i know there's litle use in crying

e |------------0------------------------------0-------0---0---0--
b |------------0--------------------0---------0-------0---0---0--
g |------------6--------------------6---------1-------2---1---2--
d |------------7------------------------------2-------2---2---2--
a |------------7------------------------------2-------2---2---2--
E |--4---------5--------------------7---------0-------0---0---0--
     it's more wide awake and dying then i'm used to

e |---------------0--------------------------
b |---------------5--------------------------
g |---------------6--------------------------
d |---------------6--------------------------
a |---------------4--------------------------
E |------------------------------------------
   i thought we'd walk these streets together

e |----------0-------------------------------0-------0---0---0--
b |----------0-----------------------0-------0-------0---0---0--
g |----------6-----------------------6-------1-------2---1---2--
d |----------7-------------------------------2-------2---2---2--
a |----------7-------------------------------2-------2---2---2--
E |--4-------5-----------------------7-------0-------0---0---0--
     now i'm hoping that i'll never have to meet you

e |-----0------------------------------0--------------------------0-----0---0---0---2-
b |-----5------------------------------0-------------------0------0-----0---2---0---0-
g |-----6------------------------------6-------------------6------1-----2---1---1---1-
d |-----6------------------------------7--------------------------2-----2---2---2---2-
a |-----4------------------------------7--------------------------2-----2---2---2---2-
E |-------------------------------4----5-------------------7------0-----0---0---0---0-
   step aside from all this anger, and somewhere in between i can feel you

e |----0----------------------------------------0---------
b |----5----------------------------------------0---------
g |----6----------------------------------------6---------
d |----6----------------------------------------7---------
a |----4----------------------------------------7---------
E |------------------------------------4--------5---------
   and ask me should we try again, i'm thinking no, y'know

e |------------------0---------------------------2-------
b |------------------0---------------------------0-------
g |------------------1---------------------------1-------
d |------------------2---------------------------2-------
a |------------------2---------------------------2-------
E |--------------7---0---------------------------0-------
   it's not what i believe in, it's not what i believe in

e |-------------0------------------------------0----------------0-----0----0---2---
b |-------------5------------------------------0----------------0-----0----0---0---
g |-------------6------------------------------6----------------1-----2----1---1---
d |-------------6------------------------------7----------------2-----2----2---2---
a |-------------4------------------------------7----------------2-----2----2---2---
E |--------------------------------------------5----------------0-----0----0---0---
   oh won't you take yourself a photograph and laugh at me   please

e |----0------------------------------0----------------0-----0----2---0---
b |----5------------------------------0----------------0-----0----0---0---
g |----6------------------------------6----------------1-----2----1---1---
d |----6------------------------------7----------------2-----2----2---2---
a |----4------------------------------7----------------2-----2----2---2---
E |-----------------------------------5----------------0-----0----0---0---
   you make yourself a photograph and laugh at me   please

e |---0-------0------------------0-------------0------------0--------------0----
b |---5-------0------------------0-------------0------------0--------------0----
g |---6-------6------------------8-------------6------------6--------------1----
d |---6-------7------------------9-------------6------------7--------------2----
a |---4-------7------------------9-------------4------------7--------------2----
E |-------4---5------------------7----------------------4---5--------------0----
   no i wanna taste you love, no i, no i...no i, just wanna taste you love, no i

e |----0------0------0---0---0---0----
b |----5------0------0---0---0---0----
g |----6------6------1---2---1---2----
d |----6------7------2---2---2---2----
a |----4------7------2---2---2---2----
E |-------4---5---7--0---0---0---0----

e |--0---------------------------------0----------------------------------0---0---0---0--
b |--5---------------------------------0----------------------------------0---0---0---0--
g |--6---------------------------------6----------------------------------1---2---1---2--
d |--6---------------------------------7----------------------------------2---2---2---2--
a |--4---------------------------------7----------------------------------2---2---2---2--
E |----------------------------4-------5---------------------------7------0---0---0---0--
     standing in your shoes i turn and now you're standing bare in my doorway

e |--------0--------------------------------0---------------------------0------0---0---0--
b |--------5--------------------------------0---------------------------0------0---0---0--
g |--------6--------------------------------6---------------------------1------2---1---2--
d |--------6--------------------------------7---------------------------2------2---2---2--
a |--------4--------------------------------7---------------------------2------2---2---2--
E |-------------------------------4---------5-----------------7---------0------0---0---0--
   i only wish that i had been prepared i'm gonna have to go along with your way

e |-----0-------------------------------0--------------------------------0----0---0--0--2-
b |-----5-------------------------------0--------------------------------0----0---2--0--0-
g |-----6-------------------------------6--------------------------------1----2---1--1--2-
d |-----6-------------------------------7--------------------------------2----2---2--2--2-
a |-----4-------------------------------7--------------------------------2----2---2--2--2-
E |------------------------------4------5-------------------------7------0----0---0--0--0-
   just take the plastic camera out its in the pants you borrowed in the driveway

e |--0----------------------------0----------------------0-----0---0---2--
b |--5----------------------------0------------------0---0-----0---0---0--
g |--6----------------------------6------------------6---1-----2---1---1--
d |--6----------------------------7----------------------2-----2---2---2--
a |--4----------------------------7----------------------2-----2---2---2--
E |-------------------------4-----5------------------7---0-----0---0---0--
   alive from the first now i'm denied by the ghost of   you

e |-------0------------------------------0----------------0-----0---0---0---2---
b |-------5------------------------------0----------------0-----0---2---0---0---
g |-------6------------------------------6----------------1-----2---1---1---1---
d |-------6------------------------------7----------------2-----2---2---2---2---
a |-------4------------------------------7----------------2-----2---2---2---2---
E |--------------------------------------5----------------0-----0---0---0---0---
          make yourself a photograph and laugh at me   please

e |-------0------------------------------0----------------0-----0---0---0---2---
b |-------5------------------------------0----------------0-----0---2---0---0---
g |-------6------------------------------6----------------1-----2---1---1---1---
d |-------6------------------------------7----------------2-----2---2---2---2---
a |-------4------------------------------7----------------2-----2---2---2---2---
E |--------------------------------------5----------------0-----0---0---0---0---
      you make yourself a photograph and laugh at me   please

e |---0-------0------------------0---
b |---5-------0------------------0---
g |---6-------6------------------8---
d |---6-------7------------------9---
a |---4-------7------------------9---
E |-------4---5------------------7---
   no i wanna taste of love,  no i...

e |------0----------------------------0------------------------0--
b |------5----------------------------0------------------0-----0--
g |------6----------------------------6------------------6-----1--
d |------6----------------------------7------------------------2--
a |------4----------------------------7------------------------2--
E |-------------------------------4---5------------------7-----0--
   i was alive from the first now i'm denied by the ghost of   you


Howie Day albums
2003 Stop All the World Now
2002 Australia
Australia tabs
01Sorry So Sorry tabbass tab
02She Says tabbass tab
03Secret tabbass tab
05Ghost tabbass tab
08More You Understand tabbass tab
09Morning After tabbass tab
10Disco tabbass tab

 

1