Search tabs:
Browse artists: 0-9 | A | B | C | D | E | F | G | H | I | J | K | L | M | N | O | P | Q | R | S | T | U | V | W | X | Y | Z
/ Iggy Pop / Avenue B (1999) / Corruption guitar tab

Corruption
by Iggy Pop
from the album Avenue B

Tabbed by JakeTaz

Main Riff
------------------------------------------------------------------
------------------------------------------------------------------
------------------------------------------------------------------
------------------------------------------------------------------
-4-4-4-----2-4--4-4-----2-4--4-4-----2-4--etc---------------------
-------2-4----------2-4----------2-4------------------------------

Lead over main riff
------------------------------------------------------------------
------------------------------------------------------------------
-9--8--6-----9--8--11--6------------------------------------------
-9--9--6-----9--9--11--6------------------------------------------
------------------------------------------------------------------
------------------------------------------------------------------

Solo in C# Pentatonic (scale shown here):
---------------------------9-12-|---------------------7-9---------
----------------------9-12------|-----------------7-9-------------
-----------------9-11-----------|-------------6-9-----------------
-----------9-11-----------------|---------6-9---------------------
------9-11----------------------|-----7-9-------------------------
-9-12---------------------------|-7-9-----------------------------

"Speak, Monkey, Speak!" Part
------------------------------------------------------------------
----------------------9-------------------------------------------
-4--4-4--6------------9-------------------------------------------
-4--4-4--6----11-9-11---------------------------------------------
-2--2-2--4--------------------------------------------------------
------------------------------------------------------------------

That's all. This is a very simple song. Don't even bother with
corrections, I don't care at all.


Iggy Pop albums
2005 Penetration
2003 Skull Ring
2001 Beat Em Up
1999 Avenue B
1996 Naughty Little Doggie
1993 American Caesar
1990 Brick by Brick
1988 Instinct
1986 Blah Blah Blah
1979 New Values
1977 The Idiot
1977 Lust for Life
Avenue B tabs
06Shakin' All Over tabbass tab
08Corruption tabbass tab

 

1