Search tabs:
Browse artists: 0-9 | A | B | C | D | E | F | G | H | I | J | K | L | M | N | O | P | Q | R | S | T | U | V | W | X | Y | Z
/ Iggy Pop / Avenue B (1999) / Shakin' All Over guitar tab

Shakin' All Over
by Iggy Pop
from the album Avenue B

Tabbed by JakeTaz

Intro:
-3----------------------------------------------------------------
---5p3------------------------------------------------------------
-------4-2-0------------------------------------------------------
-------------2-0--------------------------------------------------
------------------------------------------------------------------
------------------------------------------------------------------

Main Riff				Or this way
---------------------------------|--------------------------------
---------------------------------|--------------------------------
---------------------------------|-----9-9-7-7-4-4----------------
-----2-2-0-0---------2-2-0-0-----|-----9-9-7-7-4-4----------------
-------------2-2-------------2-2-|-----7-7-5-5-2-2----------------
-0-0-------------0-0-------------|-0-0----------------------------

\"Shivers in my thighbone\" part		then intro lick
-------5--5--0--0----------------|--3--------------------------------
-------5--5--0--0----------------|----5p3----------------------------
-1--1--6--6--1--1----------------|--------4-2-0----------------------
-2--2--7--7--2--2----------------|--------------2-0------------------
-2--2--7--7--2--2----------------|-----------------------------------
-0--0--5--5--0--0----------------|-----------------------------------

Other verse riff
------------------------------------------------------------------
------------------------------------------------------------------
------------------------------------------------------------------
-2--2-------5---7-7--2--2--------5-5-7-7--------------------------
-2--2-------5---7-7--2--2--------5-5-7-7--------------------------
-0--0-----3---3-5-5--0--0------3-----5-5--------------------------

That's all. It's a simple song. If you throw in a solo, I
suggest E pentatonic. Here's the scale:
-------------------------------12-15-|-------------------------------15-17-|
-------------------------12-15-------|-------------------------15-17-------|
-------------------12-14-------------|-------------------14-16-------------|
-------------12-14-------------------|-------------14-17-------------------|
-------12-14-------------------------|-------14-17-------------------------|
-12-15-------------------------------|-15-17-------------------------------|

I don't care about corrections.


Iggy Pop albums
2005 Penetration
2003 Skull Ring
2001 Beat Em Up
1999 Avenue B
1996 Naughty Little Doggie
1993 American Caesar
1990 Brick by Brick
1988 Instinct
1986 Blah Blah Blah
1979 New Values
1977 The Idiot
1977 Lust for Life
Avenue B tabs
06Shakin' All Over tabbass tab
08Corruption tabbass tab

 

1