Search tabs:
Browse artists: 0-9 | A | B | C | D | E | F | G | H | I | J | K | L | M | N | O | P | Q | R | S | T | U | V | W | X | Y | Z
/ Iggy Pop / Lust for Life (1977) / Passenger guitar tab

Iggy Pop - The Passenger
Submitted By: DAR
EMail: dar_netmaster@hotmail.com


This is played all the way through:

|--0--0----0------1--1----1------|-----------------3--3----3------
|--1--1----1------1--1----1------|--5--5----5------3--3----3------
|--2--2----2------2--2----2------|--5--5----5------4--4----4------
|--2--2----2------3--3----3------|--5--5----5------5--5----5------
|--0--0----0------3--3----3------|--3--3----3------5--5----5------
|-----------------1--1----1------|-----------------3--3----3------


--0--0----0------1--1----1------|--------------------------------|
--1--1----1------1--1----1------|--5--5----5---------------------|
--2--2----2------2--2----2------|--5--5----5------1--1----1------|
--2--2----2------3--3----3------|--5--5----5------2--2----2------|
--0--0----0------3--3----3------|--3--3----3------2--2----2------|
-----------------1--1----1------|-----------------0--0----0------|


Iggy Pop albums
2005 Penetration
2003 Skull Ring
2001 Beat Em Up
1999 Avenue B
1996 Naughty Little Doggie
1993 American Caesar
1990 Brick by Brick
1988 Instinct
1986 Blah Blah Blah
1979 New Values
1977 The Idiot
1977 Lust for Life
Lust for Life tabs
01Lust for Life tabbass tab
03Some Weird Sin tabbass tab
04The Passenger tabbass tab

 

1