Search tabs:
Browse artists: 0-9 | A | B | C | D | E | F | G | H | I | J | K | L | M | N | O | P | Q | R | S | T | U | V | W | X | Y | Z
/ Iggy Pop / Naughty Little Doggie (1996) / Pussy Walk guitar tab

IGGY POP - Pussy Walk
Album: Naughty Little Doggie (1995)

Tabbes by sDJh - sdjh@explosive-software.de (I speak english as well =) )

Guitar 1
Main Riff (repeat whole song)
D|-7-7-6-5-6-|
A|-7-7-6-5-6-|
E|-5-5-4-3-4-|

Refrain [0:52 / 1:52 / 2:51 / 3:39]
G|-7-7-7-7-7-7-7-7-|
D|-7-7-7-7-7-7-7-7-|
A|-5-5-5-5-5-5-5-5-|

End (at the end ^_^)
D|-7-|
A|-7-|
E|-5-|



Guitar 2
XX MAIN RIFF XXXXXXXXXXXXXXXXXXXXXXXX


B|-10~~~~----8/0-|

B|-10~~~~--------|

D|-5-6p5~~-------|

B|-10~~~~--------|

D|-5-6p5~~-------|

e|-9-(heavy bend)|
B|------10~~~~~~-|

D|---------------|-7-7-5----| (Repeat 5 times)
A|--5~-67--5~----|----------|


XX REFRAIN XXXXXXXXXXXXXXXXXXXXXXXXXX

D|-7~~~~~~-------|

XX MAIN RIFF XXXXXXXXXXXXXXXXXXXXXXXX


e|--------6(bend)/5~~~~-|--------------------|
B|-10~~~~---------------|-10~~~~-11~~~~~-8/0-|

B|-8-8-8-11/10~~~~-8/0---|

D|-5-6p5~~-------|

B|-8--10---------|

B|-8--10---------|

D|---------------|-7-7-5----| (Repeat 5 times)
A|--5~-67--5~----|----------|


XX REFRAIN XXXXXXXXXXXXXXXXXXXXXXXXXX

D|-7~~~~~~-------|

XX MAIN RIFF XXXXXXXXXXXXXXXXXXXXXXXX


e|--------9~~~-7/5-|-----------------------|
B|-10~~~~----------|--10~~~~-8~~~~/7(bend)-|

D|-5-6p5~~-------|

D|-5-6p5~~-------|

B|-8--10~~~~-----|-8/0-8/0-|-8/0-8/0-|-10~~~~----|-8/0-8/0-|-10~~~~-|-8-7-6-5(bend)-|

D|---------------|-7-7-5----| (Repeat 5 times)
A|--5~-67--5~----|----------|


XX REFRAIN XXXXXXXXXXXXXXXXXXXXXXXXXX

D|-7~~~~~~-------|

XX MAIN RIFF XXXXXXXXXXXXXXXXXXXXXXXX


e|---------------8-
B|-10~~~~-10~~~~---

D|-7--7-7---7---7--7-7-|-7--5-4-2-3-| (Repeat 4 times)

B|-10~~~~----8/0-| (Repeat 4 times)

D|-5-6p5~~-------|

D|---------------|-7-7-5----| (Repeat 2 times)
A|--5~-67--5~----|----------|


XX REFRAIN XXXXXXXXXXXXXXXXXXXXXXXXXX

D|-7~~~~~~-------|

XX MAIN RIFF XXXXXXXXXXXXXXXXXXXXXXXX

XX END XXXXXXXXXXXXXXXXXXXXXXXXXXXXXX

Enjoy yourself, and please correct it, if you think it's not perfect!!!


Iggy Pop albums
2005 Penetration
2003 Skull Ring
2001 Beat Em Up
1999 Avenue B
1996 Naughty Little Doggie
1993 American Caesar
1990 Brick by Brick
1988 Instinct
1986 Blah Blah Blah
1979 New Values
1977 The Idiot
1977 Lust for Life
Naughty Little Doggie tabs
02Pussy Walk tabbass tab

 

1