Search tabs:
Browse artists: 0-9 | A | B | C | D | E | F | G | H | I | J | K | L | M | N | O | P | Q | R | S | T | U | V | W | X | Y | Z
/ It Dies Today / The Caitiff Choir (2004) / Naenia guitar tab

by:LeperMessiah              it dies today

h - hammer on
p - pull off
^ - bend string up
r - release bend
/ - slide up
\ - slide down
. - palm mute
<>- pinch harmonic
x - muted slash
~ - hold note
* - mute after playing
\\\ - pickscrape
[Guitar one]


[Intro]   0:00 - 0:07
|------------|--------------|------------|-------------|
|------------|--------------|------------|-------------|
|------------|--------------|------------|-------------|
|-5-5-5-5----|--------------|-5-5-5-5----|-x-x--x-x----|
|-5-5-5-5----|--------------|-5-5-5-5----|-x-x--x-x----|
|-5-5-5-5----|--------------|-5-5-5-5----|-x-x--x-x----|

|------------|--------------|------------|-------------|
|------------|--------------|------------|-------------|
|------------|--------------|------------|-------------|
|-1-1-1-1----|--------------|-3-3-3-3----|-12\---------|
|-1-1-1-1----|--------------|-3-3-3-3----|-12\---------|
|-1-1-1-1----|--------------|-3-3-3-3----|-12\---------|




[Intro] (cont.)  0:07 - 0:22   [x2]
|------------|--------------|------------|-------------|
|------------|--------------|------------|-------------|
|------------|--------------|------------|-------------|
|--5-5-5-5---|-7-8-7----7---|-5-5-5-5----|-7-8-8-10-8--|
|--5-5-5-5---|-------10---8-|-5-5-5-5----|-------------|
|--5-5-5-5---|--------------|-5-5-5-5----|-------------|

|------------|--------------|------------|---------------|
|------------|--------------|------------|---------------|
|------------|--------------|------------|---------------|
|-1-1-1-1----|-7---3---2-3--|-3-3-3-3----|-5-------2h3p2-|
|-1-1-1-1----|--------------|-3-3-3-3----|--------------3|
|-1-1-1-1----|---0---0------|-3-3-3-3----|---0-0-0-------|
                 .   .                       . . .



[verse] 0:22 - 0:37   [x2]
|-------------|-------------|-------------|-------------|
|-------------|-------------|-------------|-------------|
|-------------|-------------|-------------|-------------|
|-5-5-5-5-5-5-|-5-5-5-5-5-5-|-5-5-5-5-5-5-|-5-5-5-5-5-5-|
|-5-5-5-5-5-5-|-5-5-5-5-5-5-|-5-5-5-5-5-5-|-5-5-5-5-5-5-|
|-5-5-5-5-5-5-|-5-5-5-5-5-5-|-5-5-5-5-5-5-|-5-5-5-5-5-5-|
  . . . . . .   . . . . . .   . . . . . .   . . . . . .
"Ignite the funeral pyre, and let's close the casket..."

|-------------|-------------|-------------|-------------|
|-------------|-------------|-------------|-------------|
|-------------|-------------|-------------|-------------|
|-1-1-1-1-1-1-|-1-1-1-1-1-1-|-3-3-3-3-3-3-|-3-3-3-3-3-3-|
|-1-1-1-1-1-1-|-1-1-1-1-1-1-|-3-3-3-3-3-3-|-3-3-3-3-3-3-|
|-1-1-1-1-1-1-|-1-1-1-1-1-1-|-3-3-3-3-3-3-|-3-3-3-3-3-3-|
  . . . . . .   . . . . . .   . . . . . .   . . . . . .




[Intro] (cont.) 0:37 - 0:44
|------------|--------------|------------|-------------|
|------------|--------------|------------|-------------|
|------------|--------------|------------|-------------|
|--5-5-5-5---|-7-8-7----7---|-5-5-5-5----|-7-8-8-10-8--|
|--5-5-5-5---|-------10---8-|-5-5-5-5----|-------------|
|--5-5-5-5---|--------------|-5-5-5-5----|-------------|
"let's watch it burn"

|------------|--------------|------------|---------------|
|------------|--------------|------------|---------------|
|------------|--------------|------------|---------------|
|-1-1-1-1----|-7---3---2-3--|-3-3-3-3----|-5--------2h3--|
|-1-1-1-1----|--------------|-3-3-3-3----|---------------|
|-1-1-1-1----|---0---0------|-3-3-3-3----|---0-0-0-------|
                 .   .                       . . .



[Chorus] 0:44 - 1:11
|-------------|-------------|-------------|-------------|
|-------------|-------------|-------------|-------------|
|-------------|-------------|-------------|-------------|
|-5-5-5-5-5-5-|-5-5-5-5-5-5-|-1-1-1-1-1-1-|-3-3-3-3-3-3-|
|-5-5-5-5-5-5-|-5-5-5-5-5-5-|-1-1-1-1-1-1-|-3-3-3-3-3-3-|
|-5-5-5-5-5-5-|-5-5-5-5-5-5-|-1-1-1-1-1-1-|-3-3-3-3-3-3-|[x2]
"fell into the depths of a broken heart again..."

|-------------|-------------|-------------|-------------|
|-------------|-------------|-------------|-------------|
|-------------|-------------|-------------|-------------|
|-1~----------|-3~----------|-5~----------|-5~----------|
|-1~----------|-3~----------|-5~----------|-5~----------|
|-1~----------|-3~----------|-5~----------|-5~----------|
"I get lost in your eyes..."

|--------------|-------------|-------------|--------------|
|--------------|-------------|-------------|--------------|
|--------------|-------------|-------------|--------------|
|--1~----------|-3~----------|-5-5-5-5-----|-5-5-5-5--12\-|
|--1~----------|-3~----------|-5-5-5-5-----|-5-5-5-5--12\-|
|--1~----------|-3~----------|-5-5-5-5-----|-5-5-5-5--12\-|




[Verse] 1:11 - 1:29  [x2]
|-------------|-------------|-------------|-------------|
|-------------|-------------|-------------|-------------|
|-------------|-------------|-------------|-------------|
|-5-5-5-5-5-5-|-5-5-5-5-5-5-|-5-5-5-5-5-5-|-5-5-5-5-5-5-|
|-5-5-5-5-5-5-|-5-5-5-5-5-5-|-5-5-5-5-5-5-|-5-5-5-5-5-5-|
|-5-5-5-5-5-5-|-5-5-5-5-5-5-|-5-5-5-5-5-5-|-5-5-5-5-5-5-|
  . . . . . .   . . . . . .   . . . . . .   . . . . . .
"Dressed in white, you wore nothing..."

|-------------|-------------|-------------|-------------|
|-------------|-------------|-------------|-------------|
|-------------|-------------|-------------|-------------|
|-1-1-1-1-1-1-|-1-1-1-1-1-1-|-3-3-3-3-3-3-|-3-3-3-3-3-3-|
|-1-1-1-1-1-1-|-1-1-1-1-1-1-|-3-3-3-3-3-3-|-3-3-3-3-3-3-|
|-1-1-1-1-1-1-|-1-1-1-1-1-1-|-3-3-3-3-3-3-|-3-3-3-3-3-3-|
  . . . . . .   . . . . . .   . . . . . .   . . . . . .



[Verse 2] 1:29 - 1:44  [x2]
|-------------|-------------|-------------|-------------|
|-------------|-------------|-------------|-------------|
|-------------|-------------|-------------|-------------|
|-5-5-5-5-5-5-|-5-5-5-5-5-5-|-5-5-5-5-5-5-|-3-3-3-3-3-3-|
|-5-5-5-5-5-5-|-5-5-5-5-5-5-|-5-5-5-5-5-5-|-3-3-3-3-3-3-|
|-5-5-5-5-5-5-|-5-5-5-5-5-5-|-5-5-5-5-5-5-|-3-3-3-3-3-3-|
"Not a single word of praise had escaped from your lips"

|-------------|-------------|-------------|-------------|
|-------------|-------------|-------------|-------------|
|-------------|-------------|-------------|-------------|
|-1-1-1-1-1-1-|-1-1-1-1-1-1-|-3-3-3-3-3-3-|-3-3-3-3-3-3-|
|-1-1-1-1-1-1-|-1-1-1-1-1-1-|-3-3-3-3-3-3-|-3-3-3-3-3-3-|
|-1-1-1-1-1-1-|-1-1-1-1-1-1-|-3-3-3-3-3-3-|-3-3-3-3-3-3-|




[Chorus] 1:44 - 2:10
|-------------|-------------|-------------|-------------|
|-------------|-------------|-------------|-------------|
|-------------|-------------|-------------|-------------|
|-5-5-5-5-5-5-|-5-5-5-5-5-5-|-1-1-1-1-1-1-|-3-3-3-3-3-3-|
|-5-5-5-5-5-5-|-5-5-5-5-5-5-|-1-1-1-1-1-1-|-3-3-3-3-3-3-|
|-5-5-5-5-5-5-|-5-5-5-5-5-5-|-1-1-1-1-1-1-|-3-3-3-3-3-3-|[x2]
"fell into the depths of a broken heart again..."

|-------------|-------------|-------------|-------------|
|-------------|-------------|-------------|-------------|
|-------------|-------------|-------------|-------------|
|-1~----------|-3~----------|-5~----------|-5~----------|
|-1~----------|-3~----------|-5~----------|-5~----------|
|-1~----------|-3~----------|-5~----------|-5~----------|
"I get lost in your eyes..."

|-------------|-------------|-------------|-------------|
|-------------|-------------|-------------|-------------|
|-------------|-------------|-------------|-------------|
|-1~----------|-3~----------|-5~----------|-------------|
|-1~----------|-3~----------|-5~----------|-------------|
|-1~----------|-3~----------|-5~----------|-------------|




[Breakdown] 2:10 - 2:43
|--------------|
|--------------|
|--------------|
|-3-3-3--------|
|-3-3-3--------|
|-3-3-3--------|[x1]

|--------------|--------------|-------------|---------------|
|--------------|--------------|-------------|---------------|
|--------------|--------------|-------------|---------------|
|-1-0-1-0------|--------------|-1-0-1-0-----|---------------|
|-1-0-1-0------|---8---6---5h6|-1-0-1-0-----|---8---6---5---|
|-1-0-1-0------|-0---0---0----|-1-0-1-0-----|-0---0---0-----|
    .   .        .   .   .      . . . .       .   .   .
"As you walk on..."

|--------------|--------------|--------------|--------------|
|--------------|--------------|--------------|--------------|
|--------------|--------------|--------------|--------------|
|-5-5-5-5-5-5--|-5-5-5-5-5-5--|-5-5-5-5-5-5--|-5-5-5-5-5-5--|
|-5-5-5-5-5-5--|-5-5-5-5-5-5--|-5-5-5-5-5-5--|-5-5-5-5-5-5--|
|-5-5-5-5-5-5--|-5-5-5-5-5-5--|-5-5-5-5-5-5--|-5-5-5-5-5-5--|[x2]


|--------------|--------------|-------------|---------------|
|--------------|--------------|-------------|---------------|
|--------------|--------------|-------------|---------------|
|-1-0-1-0------|--------------|-1-0-1-0-----|---------------|
|-1-0-1-0------|---8---6---5h6|-1-0-1-0-----|---8---6---5---|
|-1-0-1-0------|-0---0---0----|-1-0-1-0-----|-0---0---0-----|
    .   .        .   .   .      . . . .       .   .   .
"please just walk on..."

|--------------|--------------|--------------|--------------|
|--------------|--------------|--------------|--------------|
|--------------|--------------|--------------|--------------|
|-5-5-5-5-5-5--|-5-5-5-5-5-5--|-3-3-3-3-3-3--|-3-3-3-3-3-3--|
|-5-5-5-5-5-5--|-5-5-5-5-5-5--|-3-3-3-3-3-3--|-3-3-3-3-3-3--|
|-5-5-5-5-5-5--|-5-5-5-5-5-5--|-3-3-3-3-3-3--|-3-3-3-3-3-3--|
"don't respond,"

|--------------|--------------|--------------|--------------|
|--------------|--------------|--------------|--------------|
|--------------|--------------|--------------|--------------|
|-1-1-1-1-1-1--|-1-1-1-1-1-1--|-1-1-1-1-1-1--|-1-1-1-1-1-1--|
|-1-1-1-1-1-1--|-1-1-1-1-1-1--|-1-1-1-1-1-1--|-1-1-1-1-1-1--|
|-1-1-1-1-1-1--|-1-1-1-1-1-1--|-1-1-1-1-1-1--|-1-1-1-1-1-1--|
"I already know."




[Chorus] 2:43 - 3:36
|-------------|-------------|-------------|-------------|
|-------------|-------------|-------------|-------------|
|-------------|-------------|-------------|-------------|
|-5-5-5-5-5-5-|-5-5-5-5-5-5-|-1-1-1-1-1-1-|-3-3-3-3-3-3-|
|-5-5-5-5-5-5-|-5-5-5-5-5-5-|-1-1-1-1-1-1-|-3-3-3-3-3-3-|
|-5-5-5-5-5-5-|-5-5-5-5-5-5-|-1-1-1-1-1-1-|-3-3-3-3-3-3-|[x2]
"Fell into the depths of a broken heart again..."

|-------------|-------------|-------------|-------------|
|-------------|-------------|-------------|-------------|
|-------------|-------------|-------------|-------------|
|-1~----------|-3~----------|-5~----------|-5~----------|
|-1~----------|-3~----------|-5~----------|-5~----------|
|-1~----------|-3~----------|-5~----------|-5~----------|
"I get lost in your eyes..."

|-------------|-------------|-------------|-------------|
|-------------|-------------|-------------|-------------|
|-------------|-------------|-------------|-------------|
|-1~----------|-3~----------|-1~----------|-3~----------|
|-1~----------|-3~----------|-1~----------|-3~----------|
|-1~----------|-3~----------|-1~----------|-3~----------|
"I'll never find love there again"

|-------------|-------------|-------------|-------------|
|-------------|-------------|-------------|-------------|
|-------------|-------------|-------------|-------------|
|-1~----------|-3~----------|-5~----------|-------------|
|-1~----------|-3~----------|-5~----------|-------------|
|-1~----------|-3~----------|-5~----------|-------------|



----------------------------------------------------------------

[guitar two]


[Intro]   0:00 - 0:07
|------------|--------------|------------|-------------|
|------------|--------------|------------|-------------|
|------------|--------------|------------|-------------|
|-5-5-5-5----|--------------|-5-5-5-5----|-x-x--x-x----|
|-5-5-5-5----|--------------|-5-5-5-5----|-x-x--x-x----|
|-5-5-5-5----|--------------|-5-5-5-5----|-x-x--x-x----|

|------------|--------------|------------|-------------|
|------------|--------------|------------|-------------|
|------------|--------------|------------|-------------|
|-1-1-1-1----|--------------|-3-3-3-3----|-12\---------|
|-1-1-1-1----|--------------|-3-3-3-3----|-12\---------|
|-1-1-1-1----|--------------|-3-3-3-3----|-12\---------|




[intro} (cont.) 0:07 - 0:22
|-------------|--------------|------------|-------------|
|-------------|--------------|------------|-------------|
|-------------|-5-7-5--3-5-2-|------------|-5-7-7--8-7--|
|--5-5-5-5----|--------------|-5-5-5-5----|-------------|
|--5-5-5-5----|--------------|-5-5-5-5----|-------------|
|--5-5-5-5----|--------------|-5-5-5-5----|-------------|

|------------|---------------|------------|----------------|
|------------|---------------|------------|----------------|
|------------|-5---2---0h2---|------------|-3-------2h3p2--|
|-1-1-1-1----|---------------|-3-3-3-3----|---------------3|
|-1-1-1-1----|---------------|-3-3-3-3----|----------------|
|-1-1-1-1----|---0---0-------|-3-3-3-3----|---0-0-0--------|
                 .   .                        . . .



[verse] 0:22 - 0:37   [x2]
|-------------|-------------|-------------|-------------|
|-------------|-------------|-------------|-------------|
|-------------|-------------|-------------|-------------|
|-5-5-5-5-5-5-|-5-5-5-5-5-5-|-5-5-5-5-5-5-|-5-5-5-5-5-5-|
|-5-5-5-5-5-5-|-5-5-5-5-5-5-|-5-5-5-5-5-5-|-5-5-5-5-5-5-|
|-5-5-5-5-5-5-|-5-5-5-5-5-5-|-5-5-5-5-5-5-|-5-5-5-5-5-5-|
  . . . . . .   . . . . . .   . . . . . .   . . . . . .
"Ignite the funeral pyre, and let's close the casket..."

|-------------|-------------|-------------|-------------|
|-------------|-------------|-------------|-------------|
|-------------|-------------|-------------|-------------|
|-1-1-1-1-1-1-|-1-1-1-1-1-1-|-3-3-3-3-3-3-|-3-3-3-3-3-3-|
|-1-1-1-1-1-1-|-1-1-1-1-1-1-|-3-3-3-3-3-3-|-3-3-3-3-3-3-|
|-1-1-1-1-1-1-|-1-1-1-1-1-1-|-3-3-3-3-3-3-|-3-3-3-3-3-3-|
  . . . . . .   . . . . . .   . . . . . .   . . . . . .




[intro} (cont.) 0:37 - 0:44
|-------------|--------------|------------|-------------|
|-------------|--------------|------------|-------------|
|-------------|-5-7-5--3-5-2-|------------|-5-7-7--8-7--|
|-5-5-5-5-----|--------------|------------|-------------|
|-5-5-5-5-----|--------------|-5-5-5-5----|-------------|
|-5-5-5-5-----|--------------|-5-5-5-5----|-------------|
"let's watch it burn"

|-------------|--------------|------------|---------------|
|-------------|--------------|------------|---------------|
|-------------|-5---2---0h2--|------------|-3-------2h3---|
|-------------|--------------|------------|-------------3-|
|-1-1-1-1-----|--------------|-3-3-3-3----|---------------|
|-1-1-1-1-----|---0---0------|-3-3-3-3----|---0-0-0-------|
                  .   .                       . . .



[Chorus] 0:44 - 1:11
|-------------|-------------|-------------|-------------|
|-------------|-------------|-------------|-------------|
|-19-19-19-19-|-17-17-17-17-|-15-15-15-15-|-14-15/-14--|
|-x--x--x--x--|-x--x--x--x--|-x--x-x-x-x--|-x--x-/-x---|
|-17-17-17-17-|-17-17-17-17-|-15-15-15-15-|-12-13/-12--|
|-------------|-------------|-------------|-------------|[x3]
"fell into the depths of a broken heart again..."

|-------------|-------------|-------------|-------------|
|-------------|-------------|-------------|-------18----|
|-15-15-15-15-|-22-22-22-22-|-19-19-19-19-|-14-15-------|
|-x--x--x--x--|-x--x--x--x--|-x--x-x-x-x--|-------------|
|-13-13-13-13-|-20-20-20-20-|-17-17-17-17-|-------------|
|-------------|-------------|-------------|-------------|

|-------------|-------------|-------------|-------------|
|-15~---------|-13~---------|-15~---------|-15-------18~|
|-------------|-------------|-------------|----14-15----|
|-------------|-------------|-------------|-------------|
|-------------|-------------|-------------|-------------|
|-------------|-------------|-------------|-------------|
"I get lost in your eyes..."

|-------------|-------------|-------------|-------------|
|-15~---------|-13~---------|-15~---------|-------------|
|-------------|-------------|-------------|-------------|
|-------------|-------------|-------------|-5-5-5-5--12\|
|-------------|-------------|-------------|-5-5-5-5--12\|
|-------------|-------------|-------------|-5-5-5-5--12\|




[Verse] 1:11 - 1:29  [x2]
|-------------|-------------|-------------|-------------|
|-------------|-------------|-------------|-------------|
|-------------|-------------|-------------|-------------|
|-5-5-5-5-5-5-|-5-5-5-5-5-5-|-5-5-5-5-5-5-|-5-5-5-5-5-5-|
|-5-5-5-5-5-5-|-5-5-5-5-5-5-|-5-5-5-5-5-5-|-5-5-5-5-5-5-|
|-5-5-5-5-5-5-|-5-5-5-5-5-5-|-5-5-5-5-5-5-|-5-5-5-5-5-5-|
  . . . . . .   . . . . . .   . . . . . .   . . . . . .
"Dressed in white, you wore nothing..."

|-------------|-------------|-------------|-------------|
|-------------|-------------|-------------|-------------|
|-------------|-------------|-------------|-------------|
|-1-1-1-1-1-1-|-1-1-1-1-1-1-|-3-3-3-3-3-3-|-3-3-3-3-3-3-|
|-1-1-1-1-1-1-|-1-1-1-1-1-1-|-3-3-3-3-3-3-|-3-3-3-3-3-3-|
|-1-1-1-1-1-1-|-1-1-1-1-1-1-|-3-3-3-3-3-3-|-3-3-3-3-3-3-|
  . . . . . .   . . . . . .   . . . . . .   . . . . . .




[Verse 2] 1:29 - 1:44  [x2]
|-------------|-------------|-------------|-------------|
|-------------|-------------|-------------|-------------|
|-------------|-------------|-------------|-------------|
|-5-5-5-5-5-5-|-5-5-5-5-5-5-|-5-5-5-5-5-5-|-3-3-3-3-3-3-|
|-5-5-5-5-5-5-|-5-5-5-5-5-5-|-5-5-5-5-5-5-|-3-3-3-3-3-3-|
|-5-5-5-5-5-5-|-5-5-5-5-5-5-|-5-5-5-5-5-5-|-3-3-3-3-3-3-|
"Not a single word of praise had escaped from your lips"

|-------------|-------------|-------------|-------------|
|-------------|-------------|-------------|-------------|
|-------------|-------------|-------------|-------------|
|-1-1-1-1-1-1-|-1-1-1-1-1-1-|-3-3-3-3-3-3-|-3-3-3-3-3-3-|
|-1-1-1-1-1-1-|-1-1-1-1-1-1-|-3-3-3-3-3-3-|-3-3-3-3-3-3-|
|-1-1-1-1-1-1-|-1-1-1-1-1-1-|-3-3-3-3-3-3-|-3-3-3-3-3-3-|




[Chorus] 1:44 - 2:10
|-------------|-------------|-------------|-------------|
|-------------|-------------|-------------|-------------|
|-19-19-19-19-|-17-17-17-17-|-15-15-15-15-|-14-15/-14--|
|-x--x--x--x--|-x--x--x--x--|-x--x-x-x-x--|-x--x-/-x---|
|-17-17-17-17-|-17-17-17-17-|-15-15-15-15-|-12-13/-12--|
|-------------|-------------|-------------|-------------|[x3]
"fell into the depths of a broken heart again..."

|-------------|-------------|-------------|-------------|
|-------------|-------------|-------------|-------18----|
|-15-15-15-15-|-22-22-22-22-|-19-19-19-19-|-14-15-------|
|-x--x--x--x--|-x--x--x--x--|-x--x-x-x-x--|-------------|
|-13-13-13-13-|-20-20-20-20-|-17-17-17-17-|-------------|
|-------------|-------------|-------------|-------------|

|-------------|-------------|-------------|-------------|
|-15~---------|-13~---------|-15~---------|-15-------18~|
|-------------|-------------|-------------|----14-15----|
|-------------|-------------|-------------|-------------|
|-------------|-------------|-------------|-------------|
|-------------|-------------|-------------|-------------|
"I get lost in your eyes..."

|-------------|-------------|-------------|-------------|
|-15~---------|-13~---------|-15~---------|-------------|
|-------------|-------------|-------------|-------------|
|-------------|-------------|-------------|-------------|
|-------------|-------------|-------------|-------------|
|-------------|-------------|-------------|-------------|




[Breakdown] 2:10 - 2:43
|--------------|
|--------------|
|--------------|
|-3-3-3--------|
|-3-3-3--------|
|-3-3-3--------|[x1]

|--------------|--------------|-------------|---------------|
|--------------|--------------|-------------|---------------|
|--------------|--------------|-------------|---------------|
|-1-0-1-0------|---7---5---3h5|-1-0-1-0-----|---7---5---3---|
|-1-0-1-0------|--------------|-1-0-1-0-----|---------------|
|-1-0-1-0------|-0---0---0----|-1-0-1-0-----|-0---0---0-----|
    .   .        .   .   .        .   .       .   .   .
"As you walk on..."

|--------------|--------------|--------------|--------------|
|--------------|--------------|--------------|--------------|
|-7-7-7-7------|-7-7-7-7------|-7-7-7-7------|-7-7-7-7------|
|-x-x-x-x------|-x-x-x-x------|-x-x-x-x------|-x-x-x-x------|
|-5-5-5-5------|-5-5-5-5------|-5-5-5-5------|-5-5-5-5------|
|--------------|--------------|--------------|--------------|[x1]

|--------------|--------------|-------------|---------------|
|--------------|--------------|-------------|---------------|
|--------------|--------------|-------------|---------------|
|-1-0-1-0------|---7---5---3h5|-1-0-1-0-----|---7---5---3---|
|-1-0-1-0------|--------------|-1-0-1-0-----|---------------|
|-1-0-1-0------|-0---0---0----|-1-0-1-0-----|-0---0---0-----|
    .   .        .   .   .        .   .       .   .   .
"words don't express..."

|--------------|--------------|--------------|--------------|
|--------------|--------------|--------------|--------------|
|-7-7-7-7------|-7-7-7-7/-----|-10-10-10-10-|-5-5-5-5------|
|-x-x-x-x------|-x-x-x-x/-----|-x--x--x--x--|-x-x-x-x------|
|-5-5-5-5------|-5-5-5-5/-----|-8--8--8--8--|-3-3-3-3------|
|--------------|--------------|--------------|--------------|[x2]

|--------------|--------------|--------------|--------------|
|--------------|--------------|--------------|--------------|
|-3-3-3-3------|-3-3-3-3------|-3-3-3-3------|-3-3-3-3------|
|-x-x-x-x------|-x-x-x-x------|-x-x-x-x------|-x-x-x-x------|
|-1-1-1-1------|-1-1-1-1------|-1-1-1-1------|-1-1-1-1------|
|--------------|--------------|--------------|--------------|
"I already know."




[Chorus] 2:43 - 3:18
|-------------|-------------|-------------|-------------|
|-------------|-------------|-------------|-------------|
|-19-19-19-19-|-17-17-17-17-|-15-15-15-15-|-14-15/-14--|
|-x--x--x--x--|-x--x--x--x--|-x--x-x-x-x--|-x--x-/-x---|
|-17-17-17-17-|-17-17-17-17-|-15-15-15-15-|-12-13/-12--|
|-------------|-------------|-------------|-------------|[x3]
"fell into the depths of a broken heart again..."

|-------------|-------------|-------------|-------------|
|-------------|-------------|-------------|-------18----|
|-15-15-15-15-|-22-22-22-22-|-19-19-19-19-|-14-15-------|
|-x--x--x--x--|-x--x--x--x--|-x--x-x-x-x--|-------------|
|-13-13-13-13-|-20-20-20-20-|-17-17-17-17-|-------------|
|-------------|-------------|-------------|-------------|

|-------------|-------------|-------------|-------------|
|-15~---------|-13~---------|-15~---------|-15-------18~|
|-------------|-------------|-------------|----14-15----|
|-------------|-------------|-------------|-------------|
|-------------|-------------|-------------|-------------|
|-------------|-------------|-------------|-------------|
"I get lost in your eyes..."

|-------------|-------------|-------------|-------------|
|-15~---------|-13~---------|-15~---------|-13~---------|
|-------------|-------------|-------------|-------------|
|-------------|-------------|-------------|-------------|
|-------------|-------------|-------------|-------------|
|-------------|-------------|-------------|-------------|

|-------------|-------------|-------------|-------------|
|-15~---------|-13~---------|-15~---------|-13~---------|
|-------------|-------------|-------------|-------------|
|-------------|-------------|-------------|-------------|
|-------------|-------------|-------------|-------------|
|-------------|-------------|-------------|-------------|
"I'll never find love there again."



[Outro] 3:18 - 3:36
|-------------|-------------|-------------|-------------|
|-15~---------|-18-16-------|--------16---|-------------|
|-------------|-------19----|--17-19------|-19~----19~--|
|-------------|-------------|-------------|-------------|
|-------------|-------------|-------------|-------------|
|-------------|-------------|-------------|-------------|

|-------------|-------------|-------------|-------------|
|----18-------|-------------|-------------|-------------|
|-17----19~---|-17~---------|--14~--------|-------------|
|-------------|-------------|-------------|-------------|
|-------------|-------------|-------------|-------------|
|-------------|-------------|-------------|-------------|


It Dies Today albums
2004 The Caitiff Choir
2002 Forever Scorned
The Caitiff Choir tabs
01My Promise tabbass tab
02Severed Ties Yield Severed Heads tabbass tab
03The Radiance tabbass tab
04The Depravity Waltz tabbass tab
05A Threnody for Modern Romance tabbass tab
07Freak Gasoline Fight Accident tabbass tab
08The Caitiff Choir: Revelations tabbass tab
10Naenia tabbass tab
11The Caitiff Choir: Defeatism tabbass tab

 

1