Search tabs:
Browse artists: 0-9 | A | B | C | D | E | F | G | H | I | J | K | L | M | N | O | P | Q | R | S | T | U | V | W | X | Y | Z
/ Joe Satriani / Crystal Planet (1998) / Lights of Heaven guitar tab

Song: Lights Of Heaven
Artist: Joe Satriani
Album: Crystal Planet
Tabber: Eren Matthews

Tuning: Standard
\\: slide down
/: slide up
(): bend up/down to pitch in parantheses
p: pull off
h: hammer on
~: vibrate note with fretting hand

Intro:
   some wierd guitar effects, i dont know

Intro 2: 
e---0-0-0-0--0-00--00-0/0--0-0-0-0--0-00--0--0---
B---0-0-0-0--0-00--00-0/0--0-0-0-0--0-00--0--0---
G---9-9-9-9--7-77--77-7/9--9-9-9-9--7-77--7--7---
D---9-9-9-9--7-77--77-7/9--9-9-9-9--7-77--7--7---   x 4
A---7-7-7-7--5-55--55-5/7--7-7-7-7--5-55--5--5---
E---0-0-0-8--0-00--00-0/0--0-0-0-0--0-00--0--0---


Chords:
 -079900
 -879900
 -057700

The rythm guitar plays intro 2 while satriani does the soloing

Solo First Part:
e---------------------------10-12--------------------------------------------
B-8h10p8-10/12-12--12~~~~12-------10-----------------------------------------
G------------------------------------12-11(12)(11)(12)(11)(12)(11)~~-7/9-9~~-
D----------------------------------------------------------------------------
A----------------------------------------------------------------------------
E----------------------------------------------------------------------------

e---------------------------10-12----------------------------------------------
B-8h10p8-10/12-12--12~~~~12-------10-------------------------------------------
G------------------------------------12-11(13)(11)(12)(11)(12)~~~~-7/9-9-7\\4-4-
D------------------------------------------------------------------------------
A------------------------------------------------------------------------------
E------------------------------------------------------------------------------

e------------------------10----10-12------------
B----------10-12\\10/12------12-------10~~~~-----
G-9--11-12--------------------------------------
D-----------------------------------------------
A-----------------------------------------------
E-----------------------------------------------

e------------------------12----------10~~~~-----
B----------10-12\\10/12---------12---------------
G-9--11-12--------------------------------------
D-----------------------------------------------
A-----------------------------------------------
E-----------------------------------------------

e---------------------------10-12---------------------------------------------
B-8h10p8-10/12-12--12~~~~12-------10------------------------------------------
G------------------------------------12-11(12)(11)(12)(11)(12)(11)~~-11\\9-9~~-
D-----------------------------------------------------------------------------
A-----------------------------------------------------------------------------
E-----------------------------------------------------------------------------

e-----------------------------------------------------------------------------
B-12(13)-12(13)(12)-----------------------12(13)(12)-10-----------------------
G-------------------11(12)(11)-11-9-12~~----------------11(12)(11)-11-9-------
D-----------------------------------------------------------------------9~~---
A-----------------------------------------------------------------------------
E-----------------------------------------------------------------------------

e-----------------------------------------
B-12(13)-12(13)(12)-----------------------
G-------------------11(12)(11)-11-9-12~~--
D-----------------------------------------
A-----------------------------------------
E-----------------------------------------

e-----------------------------------------
B-10(12)------10(12)(10)-8-10~~~~~~~------
G-----------------------------------------
D-----------------------------------------
A-----------------------------------------
E-----------------------------------------


The rest:  IMPOSSIBLE TO TAB


Joe Satriani albums
2004 Is There Love in Space?
2002 Strange Beautiful Music
2000 Engines of Creation
1998 Crystal Planet
1995 Joe Satriani
1993 Time Machine
1992 The Extremist
1989 Flying in a Blue Dream
1987 Surfing With the Alien
1986 Not of This Earth
Crystal Planet tabs
01Up in the Sky tabbass tab
02House Full of Bullets tabbass tab
03Crystal Planet tabbass tab
04Love Thing tabbass tab
06Lights of Heaven tabbass tab
07Raspberry Jam Delta-V tabbass tab
08Ceremony tabbass tab
10Secret Prayer tabbass tab
11A Train of Angels tabbass tab
12A Piece of Liquid tabbass tab
14Time tabbass tab
15Z.Z.'s Song tabbass tab

 

1