Search tabs:
Browse artists: 0-9 | A | B | C | D | E | F | G | H | I | J | K | L | M | N | O | P | Q | R | S | T | U | V | W | X | Y | Z
/ Lagwagon / Double Plaidinum (1997) / To All My Friends guitar tab

----------------------------------------------------------------
Lagwagon - to all my friends
----------------------------------------------------------------

Tune all guitars down one whole step 


Verse:
                                          x 2
E|------------------------------------------|
B|------------------------------------------|
G|-------------------2------------------4---|
D|-2-----------------2------------------4---|
A|-2-----------------0------------------2---|
E|-0----------------------------------------|

                                         x 2
e|-----------------------------------------|
B|-----------------------------------------|
G|---------------------2-2-2-2-2-4-4-4-4-4-|
D|-2-2-2-2-2-2-2-2-2-2-2-2-2-2-2-4-4-4-4-4-|
A|-2-2-2-2-2-2-2-2-2-2-0-0-0-0-0-2-2-2-2-2-|
E|-0-0-0-0-0-0-0-0-0-0---------------------|


Chorus:                                                x 2
e|--------------------------------------------------------|
B|--------------------------------------------------------|
G|-9-9-9-9-9-9--------------------------------------------|
D|-9-9-9-9-9-9-11-11-11-11-11-11--7-7-7-7-7-7-9-9-9-9-9-9-|
A|-7-7-7-7-7-7-11-11-11-11-11-11--7-7-7-7-7-7-9-9-9-9-9-9-|
E|--------------9--9--9--9--9--9--5-5-5-5-5-5-7-7-7-7-7-7-|

e|--------------------------------------------|
B|--------------------------------------------|
G|-9-9-9-9-9-9--------------------------------|
D|-9-9-9-9-9-9-11-11-11-11-11-11--7-7-7-7-7-7-|
A|-7-7-7-7-7-7-11-11-11-11-11-11--7-7-7-7-7-7-|
E|--------------9--9--9--9--9--9--5-5-5-5-5-5-|

e|--------------------------------------------------|
B|--------------------------------------------------|
G|-------------6-6-6-6-6-6---------------9----------|
D|-2-2-2-2-2-2-6-6-6-6-6-6-7-7-7-7-7-7-7-9--hold----|
A|-2-2-2-2-2-2-4-4-4-4-4-4-7-7-7-7-7-7-7-7----------|
E|-0-0-0-0-0-0-------------5-5-5-5-5-5-5------------|


Repeat Verse

Repeat Chorus but replace last line with this:

e|---------------------------------------------------------------|
B|---------------------------------------------------------------|
G|-------------6-6-6-6-6-6---------------14-14-14-14-14-14-14-14-|
D|-2-2-2-2-2-2-6-6-6-6-6-6-7-7-7-7-7-7-7-------------------------|
A|-2-2-2-2-2-2-4-4-4-4-4-4-7-7-7-7-7-7-7-12-12-12-12-12-12-12-12-|
E|-0-0-0-0-0-0-------------5-5-5-5-5-5-5-------------------------|

e|-----------------------------------------|
B|-----------------------------------------|
G|-----------------------------------------|
D|-x-x-9-9-9-x-x-9-9-9-x-x-9-9-9-x-x-9-9-9-|
A|-x-x-9-9-9-x-x-9-9-9-x-x-9-9-9-x-x-9-9-9-|
E|-x-x-7-7-7-x-x-7-7-7-x-x-7-7-7-x-x-7-7-7-|

Guitar Solo:

e|------------------------------------------------------------------|
B|----------------x-10-9-10-12----9-7----------9----------------9~--|
G|-9-8-9-11-9-8-9--------------11------x-9-8-9---11----------8~-----|
D|--------------------------------------------------9-10-11---------|
A|------------------------------------------------------------------|
E|------------------------------------------------------------------|

e|---------7----------------------------------------------|
B|-9-9-7-9-------9-7h9p7-------7---7-9-7---7-7h9p7--------|
G|-----------9-9---------9-------9-------9---------9-9~~~-|
D|-------------------------9~~----------------------------|
A|--------------------------------------------------------|
E|--------------------------------------------------------|

e|--------7~---7-9~-9-7-9/12~-12------/16~-16~~~~---|
B|-9~-7-9----9------------------14-12---------------|
G|--------------------------------------------------|
D|--------------------------------------------------|
A|--------------------------------------------------|
E|--------------------------------------------------|


Gtr. 2 play the notes written in above

e||-16~~~~~~------------------16~~~~~~~--------------------11~~~~-----------|
B||-------------------------------------------------------------------------|
G||*9-9-9-9-9-9-9-9---------------------------------------------------------|
D||-9-9-9-9-9-9-9-9-9-9-9-9-9-9-9-9-11-11-11-11-11-11-11-11-6-6-6-6-6-6-6-6-|
A||*7-7-7-7-7-7-7-7-9-9-9-9-9-9-9-9-11-11-11-11-11-11-11-11-6-6-6-6-6-6-6-6-|
E||-----------------7-7-7-7-7-7-7-7--9--9--9--9--9--9--9--9-4-4-4-4-4-4-4-4-|

e|-12~~~~~--------------------------||
B|----------------------------------||
G|---------------------------------*||
D|-7-7-7-7-7-7-7-7-9-9-9-9-9-9-9-9--||
A|-7-7-7-7-7-7-7-7-9-9-9-9-9-9-9-9-*||
E|-5-5-5-5-5-5-5-5-7-7-7-7-7-7-7-7--||     

e|---------------------------------------------------------------|
B|---------------------------------------------------------------|
G|-9~~~~~~~~~~~~--------------------------------------------9~~--|
D|-9~~~~~~~~~~~~-9-9-9-9-9-9-9-7-7-7-7-7-7-7--7-7-7-7-7-7-7-9~~--|
A|-7~~~~~~~~~~~~-9-9-9-9-9-9-9-7-7-7-7-7-7-7--7-7-7-7-7-7-7-7~~--|
E|---------------7-7-7-7-7-7-5-5-5-5-5-5-5-5--5-5-5-5-5-5-5------|

e|--------------------------------|
B|-7/9--9\7--7\5--5------5~~~~~~~-|
G|------------------6-4--4~~~~~~~-|
D|--------------------------------|
A|--------------------------------|
E|--------------------------------|

----------------------------------------------------------------


Lagwagon albums
2003 Blaze
1998 Let's Talk About Feelings
1997 Double Plaidinum
1995 Hoss
1994 Trashed
1992 Duh
Double Plaidinum tabs
01Alien 8 tabbass tab
02Making Friends tabbass tab
03Unfurnished tabbass tab
04One Thing To Live tabbass tab
05Today tabbass tab
06Confession tabbass tab
07Bad Scene tabbass tab
08Smile tabbass tab
09Twenty-Seven tabbass tab
10Choke tabbass tab
11Failure tabbass tab
12To All My Friends tabbass tab

 

1