Search tabs:
Browse artists: 0-9 | A | B | C | D | E | F | G | H | I | J | K | L | M | N | O | P | Q | R | S | T | U | V | W | X | Y | Z
/ Lagwagon / Double Plaidinum (1997) / Twenty-Seven guitar tab

----------------------------------------------------------------
Lagwagon - twenty seven
----------------------------------------------------------------

bass intro:

G|-------------------|
D|-------------------|
A|-5-----2--0--------|
E|----2---------3----|


Verse :

Gtr. 2 play these fills when stated:

 fill 1
e|---------------------------|
B|---------------------------|
G|-9/11-6-6-6-6-6-6-6-6-6-6--|
D|---------------------------|
A|-7/-9-4-4-4-4-4-4-4-4-4-4--|
E|---------------------------|

fill 2
e|-----------------------------|
B|-----------------------------|
G|-7-7-7--11-11-11--9-9-9--14--|
D|-----------------------------|
A|-5-5-5---9--9--9--7-7-7--12--|
E|-----------------------------|


Gtr. 1 play this : play fill in brackets on second time through
            (w/fill 1)
e||--------------------------------------------------------------------|
B||--------------------------------------------------------------------|
G||*-7-7-7-7-7-7-7-7-7-7-----------------------4-4-4-2-2-2-------------|
D||--7-7-7-7-7-7-7-7-7-7-4-4-4-4-4-4-4-4-4-4-4-4-4-4-2-2-2-2-2-2-7-7-7-|
A||*-5-5-5-5-5-5-5-5-5-5-4-4-4-4-4-4-4-4-4-4-4-2-2-2-0-0-0-2-2-2-7-7-7-|
E||----------------------2-2-2-2-2-2-2-2-2-2-2-------------0-0-0-5-5-5-|
                                    w/fill 2
e|------------------------||------------------------------------------------|
B|------------------------||------------------------------------------------|
G|-----------------------*||-7-7-7-7-7-7-7-7-7-7-----------------4-4-4-2-2-2|
D|-5-5-5-5-5-5-5-5-5-5-5--||-7-7-7-7-7-7-7-7-7-7-4-4-4-4-4-4-4-4-4-4-4-2-2-2|
A|-5-5-5-5-5-5-5-5-5-5-5-*||-5-5-5-5-5-5-5-5-5-5-4-4-4-4-4-4-4-4-2-2-2-0-0-0|
E|-3-3-3-3-3-3-3-3-3-3-3--||---------------------2-2-2-2-2-2-2-2------------|

e|----------------------------------------------------------------|
B|----------------------------------------------------------------|
G|-7-7-7-----------------------------7-7-7-7-7-7-7-7-7-7-7-7-7-7\-|
D|-7-7-7-7-7-7--5-5-5-5-5-5-5-5-5-5--7-7-7-7-7-7-7-7-7-7-7-7-7-7\-|
A|-5-5-5-7-7-7--5-5-5-5-5-5-5-5-5-5--5-5-5-5-5-5-5-5-5-5-5-5-5-5\-|
E|-------5-5-5--3-3-3-3-3-3-3-3-3-3-------------------------------|
 

Pre-Chorus
                                         p.m.^^^^^^^^
e|-----------------------------------------------------|
B|-----------------------------------------------------|
G|-------------4-4-4-4-4-2-----------------------------|
D|-4-4-4-4-4-4-4-4-4-4-4-2--5-5-5-5-5-5--7-7-7-7-7-7-7-|
A|-4-4-4-4-4-4-2-2-2-2-2-0--5-5-5-5-5-5--7-7-7-7-7-7-7-|
E|-2-2-0-2-2-0--------------3-3-0-3-3-0--5-5-5-5-5-5-5-|



Chorus:

Gtr. 1
e||-------------------------------------------------------------------------|
B||-------------------------------------------------------------------------|
G||*-7-7-7-7-7-7-7-7-7-7-7-7------------------------------------------------|
D||--7-7-7-7-7-7-7-7-7-7-7-7-7-7-7-7-7-7-7-7-7-7-7-7-2-2-2-2-2-2-2-2-2-2-2-2|
A||*-5-5-5-5-5-5-5-5-5-5-5-5-7-7-7-7-7-7-7-7-7-7-7-7-2-2-2-2-2-2-2-2-2-2-2-2|
E||--------------------------5-5-5-5-5-5-5-5-5-5-5-5-0-0-0-0-0-0-0-0-0-0-0-0|

e|--------------------------||-----------------------|
B|--------------------------||-----------------------|
G|-------------------------*||-7-----4--2------------|
D|-5-5-5-5-5-5-7-7-7-7-7-7--||-7--4--4--2--5~~~~~~~--|
A|-5-5-5-5-5-5-7-7-7-7-7-7-*||-5--4--2--0--5~~~~~~~--|
E|-3-3-3-3-3-3-5-5-5-5-5-5--||----2--------3~~~~~~~--|


Gtr. 2 play this, starting at the start of Gtr. 1's repeat.  I lined it
up
with Gtr 1's part, so you get some idea of the timing.
e|--------------------------------------------------------------------------|
B|--------------------------------------------------------------------------|
G|-7-7-7-7-7-7---11----7-----9-9-9-9----6-6--7-7--9---4-4-4-4-4---9--7-7--9-|
D|-7-7-7-7-7-7--------------------------------------------------------------|
A|-5-5-5-5-5-5----9----5-----7-7-7-7----4-4--5-5--7---2-2-2-2-2---7--5-5--7-|
E|--------------------------------------------------------------------------|

e|--------------------------|-----------------------|
B|--------------------------|-----------------------|
G|-7-7-7-7-7-7-6-6-6-6-6-6--|-7--9-11-12------------|
D|--------------------------|-7-----------5~~~~~~---|
A|-5-5-5-5-5-5-4-4-4-4-4-4--|-5--7--9-10--5~~~~~~---|
E|--------------------------|-------------3~~~~~~---|



Repeat Verse but replace the last line with this:

e|-------------|-------------------------------------------|
B|-------------|-------------------------------------------|
G|-7-7-7-------|------------------------7-7-7-7-7-7-7------|
D|-7-7-7-7-7-7-|-5-5-5-5-5-x-7-7-7-7-7--7-7-7-7-7-7-7--4-4-|
A|-5-5-5-7-7-7-|-5-5-5-5-5-x-7-7-7-7-7--5-5-5-5-5-5-5--4-4-|
E|-------5-5-5-|-3-3-0-3-3-x-5-5-0-5-5------0-----0----2-2-|



Bridge to Solo:                                          x 2
e|---------------------------------------------------------|
B|---------------------------------------------------------|
G|------------------------------7-7---7-7---7--------------|
D|-5-5-2-5-5-2-5--7-7-7-7-7-7---7-7-7-7-7-7-7--4-4-4-4-4-4-|
A|-5-5-2-5-5-2-5--7-7-7-7-7-7---5-5-7-5-5-7-5--4-4-4-4-4-4-|
E|-3-3-0-3-3-0-3--5-5-5-5-5-5-------5-----5----2-2-2-2-2-2-|


e|------------------------------------------------------|
B|------------------------------------------------------|
G|------------------------------------------------------|
D|-5-5-2-5-5-2-5--7-7-7-7-7-7--8-8-8-8-8-8--9-9-9-9-9-9-|
A|-5-5-2-5-5-2-5--7-7-7-7-7-7--8-8-8-8-8-8--9-9-9-9-9-9-|
E|-3-3-0-3-3-0-3--5-5-5-5-5-5--6-6-6-6-6-6--7-7-7-7-7-7-|

   p.m.^^^^^^^^^^^^^^^^^^^^^^^^^^
e|---------------------------------|
B|---------------------------------|
G|---------------------------------|
D|-5-5-5-5-5-5-5-5-7-7-7-7-7-7-7-7-|
A|-5-5-5-5-5-5-5-5-7-7-7-7-7-7-7-7-|
E|-3-3-3-3-3-3-3-3-5-5-5-5-5-5-5-5-|


Gtr. 2 play solo, starting on second time through the first line of
bridge
e|-----------------------------------|------------------------------------|
B|--------------7~~-8-7--------------|----------------7-8-7---------------|
G|----6-7---6-7---------9~~-7-9-7-6~-|----6-7--6-7-9~-------9~~-7-9-7-6~--|
D|-/9--------------------------------|-/9---------------------------------|
A|-----------------------------------|------------------------------------|
E|-----------------------------------|------------------------------------|

e|-----------------------|
B|-----------------------|
G|----------2------------|
D|-5--4--2----5-4-2-0----|
A|-----------------------|
E|-----------------------|



Outro:

Gtr. 1
e|---------------------------------------------------------|
B|---------------------------------------------------------|
G|-7-7-7-7-7-7-7-7-7-7-5-5-5-5-5-5-5-5-5-4-4-4-4-4-4-4-4-4-|
D|-7-7-7-7-7-7-7-7-7-7-5-5-5-5-5-5-5-5-5-4-4-4-4-4-4-4-4-4-|
A|-5-5-5-5-5-5-5-5-5-5-3-3-3-3-3-3-3-3-3-2-2-2-2-2-2-2-2-2-|
E|---------------------------------------------------------|

e|-------------------------------|
B|-------------------------------|
G|-12-12-12-12-12-12--9-9-9-9-9--|
D|-------------------------------|
A|-10-10-10-10-10-10--7-7-7-7-7--|
E|-------------------------------|

e|-------------------------------------------------------------------|
B|-------------------------------------------------------------------|
G|-7-7-7-7-7-7-7-7-7-7-7-9-9-9-9-9-9-9-9-9-9-9-9-9-9-9-9-9-9-9-9-9-9-|
D|-7-7-7-7-7-7-7-7-7-7-7-9-9-9-9-9-9-9-9-9-9-9-9-9-9-9-9-9-9-9-9-9-9-|
A|-5-5-5-5-5-5-5-5-5-5-5-7-7-7-7-7-7-7-7-7-7-7-7-7-7-7-7-7-7-7-7-7-7-|
E|-------------------------------------------------------------------|

e|-------------------------|
B|-------------------------|
G|-------------------------|
D|-5-5-5-5-5-5-7-7-7-7-7-7-|
A|-5-5-5-5-5-5-7-7-7-7-7-7-|
E|-3-3-3-3-3-3-5-5-5-5-5-5-|


Gtr. 2 play this over those last two bars
e|--------------------------------------------------------------------------|
B|--------------------------------------------------------------------------|
G|-7-7-7-7-7-7-7-7-7-7-7-9-9-9-9-9-9-7-9-9-9-9-9-9-9-9-7-7-7-7-7-7-6-6-6-6-6|
D|-7-7-7-7-7-7-7-7-7-7-7----------------------------------------------------|
A|-5-5-5-5-5-5-5-5-5-5-5-7-7-7-7-7-7-5-7-7-7-7-7-7-7-7-5-5-5-5-5-5-4-4-4-4-4|
E|--------------------------------------------------------------------------|

Last little Thing :
e|----------------------|
B|----------------------|
G|-11-------------7-----|
D|------7--8--12--7-----|
A|--9---7--8--12--5-----|
E|------5--6--10--------|

----------------------------------------------------------------


Lagwagon albums
2003 Blaze
1998 Let's Talk About Feelings
1997 Double Plaidinum
1995 Hoss
1994 Trashed
1992 Duh
Double Plaidinum tabs
01Alien 8 tabbass tab
02Making Friends tabbass tab
03Unfurnished tabbass tab
04One Thing To Live tabbass tab
05Today tabbass tab
06Confession tabbass tab
07Bad Scene tabbass tab
08Smile tabbass tab
09Twenty-Seven tabbass tab
10Choke tabbass tab
11Failure tabbass tab
12To All My Friends tabbass tab

 

1