Search tabs:
Browse artists: 0-9 | A | B | C | D | E | F | G | H | I | J | K | L | M | N | O | P | Q | R | S | T | U | V | W | X | Y | Z
/ Lagwagon / Duh (1992) / Lagwagon guitar tab

-------------------------------------------------------------------------------
                          LAGWAGON - Lagwagon
-------------------------------------------------------------------------------

By: Mit

Unemployement is my scene...
-------------------------
-------------------------
-6-----6---9-6-----6---9-
-6-4-6-6-4-9-6-4-6-6-4-9-
-4-4-6-4-4-7-4-4-6-4-4-7-
---2-4---2-----2-4---2---

The S.B.-Goleta connection...
-----------------------------
-----------------9-----------
---9-6-------9---8-6-4/6-4-6-
-9-9-6-4-6-9-9-6-6-6-4/6-4-6-
-9-7-4-4-6-9-7-6---4-2/4-2-4-
-7-----2-4-7---4-------------

Give me a sofa and some snacks...
-----------------------------
-----------------------------
-6---9---6---9------11---9---
-6-6-9-9-6-6-9-9-11-11-9-9-6-
-4-6-7-9-4-6-7-9-11-9--9-7-6-
---4---7---4---7-9-----7---4-

-----------------------------------------
-----------------------------------------
-----------------2-4---------4-4---------
---2---2---2-3-4-------2---2-----4-3-2---
-4---4---4-----------4---4-------------4-
-----------------------------------------

---------------
---------------
-----6-----6-4-
-6-9-6-6-9-6-4-
-6-9-4-6-9-4-2-
-4-7---4-7-----

All Aboard the Lag Wagon...
---------------
---------------
-4-------9-----
-6-4-6-9-9-6---
-4-4-6-9-7-6---
---2-4-7---4---

If you have the solo please send to me.

=====================================================================


Lagwagon albums
2003 Blaze
1998 Let's Talk About Feelings
1997 Double Plaidinum
1995 Hoss
1994 Trashed
1992 Duh
Duh tabs
01Tragic Vision tabbass tab
02Foiled Again tabbass tab
03Bury the Hatchet tabbass tab
04Angry Days tabbass tab
07Bad Moon Rising tabbass tab
08Beer Goggles tabbass tab
09Inspector Gadget tabbass tab
11Mr. Coffee tabbass tab
12Of Mind and Matter tabbass tab
14Lagwagon tabbass tab

 

1