Search tabs:
Browse artists: 0-9 | A | B | C | D | E | F | G | H | I | J | K | L | M | N | O | P | Q | R | S | T | U | V | W | X | Y | Z
/ Lagwagon / Hoss (1995) / Bombs Away guitar tab

---------------------------------------------------------------------------------------------------------------------------
                           BOMBS AWAY - Lagwagon
---------------------------------------------------------------------------------------------------------------------------

By: Rambozo

e-|---------------------------------------------------------------
B-|---------------------------------------------------------------
G-|---------------------------------------------------------------
D-|-4-4-4-4-4-4-4-4-----------------7-7-11-11-9-9-7-7-7-7-7-7-7-7-
A-|-2-2-2-2-2-2-2-2-5-5-5-5-7-7-7-7-5-5--9--9-7-7-5-5-5-5-5-5-5-5-
E-|-----------------3-3-3-3-5-5-5-5-------------------------------

e-|-----------------------------------------------------------------
B-|-----------------------------------------------------------------
G-|-----------------------------------------------------------------
D-|-4-4-4-4-4-4-4-4-----------------7-7-7-7-7-7-7-7-4-4-4-4-4-4-4-4-
A-|-2-2-2-2-2-2-2-2-5-5-5-5-7-7-7-7-5-5-5-5-5-5-5-5-2-2-2-2-2-2-2-2-
E-|-----------------3-3-3-3-5-5-5-5---------------------------------

e-|-----------------------------------------------------------------
B-|-----------------------------------------------------------------
G-|-----------------------------------------------------------------
D-|-----------------7-7-7-7-7-7-7-7-4-4-4-4-4-4-4-4-----------------
A-|-5-5-5-5-7-7-7-7-5-5-5-5-5-5-5-5-2-2-2-2-2-2-2-2-5-5-5-5-7-7-7-7-
E-|-3-3-3-3-5-5-5-5---------------------------------3-3-3-3-5-5-5-5-

e-|--------------|
B-|--------------|
G-|--------------|
D-|-7-7-7-7--6-7-|
A-|-5-5-5-5--4-5-|
E-|--------------|

e-|---------------------------------------------------------------
B-|---------------------------------------------------------------
G-|---------------------------------------------------------------
D-|-4-4-4-4-4-4-4-4-----------------7-7-11-11-9-9-7-7-7-7-7-7-7-7-
A-|-2-2-2-2-2-2-2-2-5-5-5-5-7-7-7-7-5-5--9--9-7-7-5-5-5-5-5-5-5-5-
E-|-----------------3-3-3-3-5-5-5-5-------------------------------

e-|-----------------------------------------------------------------
B-|-----------------------------------------------------------------
G-|-----------------------------------------------------------------
D-|-4-4-4-4-4-4-4-4-----------------7-7-7-7-7-7-7-7-4-4-4-4-4-4-4-4-
A-|-2-2-2-2-2-2-2-2-5-5-5-5-7-7-7-7-5-5-5-5-5-5-5-5-2-2-2-2-2-2-2-2-
E-|-----------------3-3-3-3-5-5-5-5---------------------------------

e-|-----------------------------------------------------------------
B-|-----------------------------------------------------------------
G-|-----------------------------------------------------------------
D-|-----------------7-7-7-7-7-7-7-7-4-4-4-4-4-4-4-4-----------------
A-|-5-5-5-5-7-7-7-7-5-5-5-5-5-5-5-5-2-2-2-2-2-2-2-2-5-5-5-5-7-7-7-7-
E-|-3-3-3-3-5-5-5-5---------------------------------3-3-3-3-5-5-5-5-

e-|--------------|
B-|--------------|
G-|--------------|
D-|-7-7-7-7--6-7-|
A-|-5-5-5-5--4-5-|
E-|--------------|

e-|------------------------------------------------------------------
B-|------------------------------------------------------------------
G-|------------------------------------------------------------------
D-|-7-7-7-7-9-9-9-9-----------------7-7-7-7-9-9-9-9-------------11-9-
A-|-5-5-5-5-7-7-7-7-5-5-5-5-7-7-7-7-5-5-5-5-7-7-7-7-5-5-5-5-7-7--9-7-
E-|-----------------3-3-3-3-5-5-5-5-----------------3-3-3-3-5-5------

e-|--------------------------------------------------------------|
B-|--------------------------------------------------------------|
G-|--------------------------------------------------------------|
D-|-7-7-7-7-9-9-9-9-----------------7-9--------------------------|
A-|-5-5-5-5-7-7-7-7-5-5-5-5-7-7-7-7-5-7-9-7-5-7--12-11-9-7-5-4-2-|
E-|-----------------3-3-3-3-5-5-5-5-----7-5-3-5--10--9-7-5-3-2-0-|

e-|---------------------------------------------------------
B-|---------------------------------------------------------
G-|-------7---9-7-------7---9-7-------7---9-7-------7---9-7-
D-|-7-7-7---7---------7---7---------7---7---------7---7-----
A-|-5-5-----------7-7-----------5-5-----------7-7-----------
E-|---------------5-5-----------3-3-----------5-5-----------

e-|-------------------------------------------------------------------------|
B-|-------------------------------------------------------------------------|
G-|-------------------------------------------------------------------------|
D-|-7-------7-7-7-7-7-7-7-7-------------------------------------------------|
A-|-5-7-5-7-5-5-5-5-5-5-5-5-7-7-7-7-7-7-7-7-5-5-5-5-5-5-5-5-7-7-7-7-7-7-7-7-|
E-|---5-3-5-----------------5-5-5-5-5-5-5-5-3-3-3-3-3-3-3-3-5-5-5-5-5-5-5-5-|

e-|-------------------------------------------------------------------------
B-|-------------------------------------------------------------------------
G-|-------------------------------------------------------------------------
D-|-7-7-7-7--7-7-7-7--7-7-7-7--7-7-7-7--7-7-11-9-7-7-11-9-7-7-11-9-7-7-11-9-
A-|-5-5-5-5--5-5-5-5--5-5-5-5--5-5-5-5--5-5--9-7-5-5--9-7-5-5--9-7-5-5--9-7-
E-|-------------------------------------------------------------------------

e-|------------------------------------|
B-|------------------------------------|
G-|------------------------------------|
D-|-7-7-7-7--7-7-7-7--7-7-7-7--7-7-7-7-|
A-|-5-5-5-5--5-5-5-5--5-5-5-5--5-5-5-5-|
E-|------------------------------------|

e-|-----------------------------------------------------------------
B-|-----------------------------------------------------------------
G-|-----------------------------------------------------------------
D-|-7-7-7-7-7-7-7-7-4-4-4-4-4-4-4-4-----------------7-7-7-7-7-7-7-7-
A-|-5-5-5-5-5-5-5-5-2-2-2-2-2-2-2-2-5-5-5-5-7-7-7-7-5-5-5-5-5-5-5-5-
E-|---------------------------------3-3-3-3-5-5-5-5-----------------

e-|-----------------------------------------|
B-|-----------------------------------------|
G-|-----------------------------------------|
D-|-4-4-4-4-4-4-4-4-----------------7-7-6-7-|
A-|-2-2-2-2-2-2-2-2-5-5-5-5-7-7-7-7-5-5-4-5-|
E-|-----------------3-3-3-3-5-5-5-5---------|

e-|-------------------------------------------------------------------------
B-|-------------------------------------------------------------------------
G-|-------------------------------------------------------------------------
D-|-7-------7-7-7-7-------------------------7-7-7-7-7-7-7-7-4-4-4-4-4-4-4-4-
A-|-5-7-5-7-5-5-5-5-7-7-7-7-5-5-5-5-7-7-7-7-5-5-5-5-5-5-5-5-2-2-2-2-2-2-2-2-
E-|---5-3-5---------5-5-5-5-3-3-3-3-5-5-5-5---------------------------------

e-|---------------------|
B-|---------------------|
G-|---------------------|
D-|-----5-------7----7--|
A-|---5---5---7---7--5--|
E-|-3-------5-----------|

   =====================================================================



Lagwagon albums
2003 Blaze
1998 Let's Talk About Feelings
1997 Double Plaidinum
1995 Hoss
1994 Trashed
1992 Duh
Hoss tabs
01Kids Don't Like To Share tabbass tab
02Violins tabbass tab
03Name Dropping tabbass tab
04Bombs Away tabbass tab
05Move The Car tabbass tab
06Sleep tabbass tab
07Sick tabbass tab
08Rifle tabbass tab
09Weak tabbass tab
10Black Eyes tabbass tab
11Bro Dependent tabbass tab
12Razor Burn tabbass tab
13Shaving Your Head tabbass tab
14Ride The Snake tabbass tab

 

1