Search tabs:
Browse artists: 0-9 | A | B | C | D | E | F | G | H | I | J | K | L | M | N | O | P | Q | R | S | T | U | V | W | X | Y | Z
/ Lagwagon / Hoss (1995) / Rifle guitar tab

-------------------------------------------------------------------------------------------------------------------
                             RIFLE - Lagwagon
-------------------------------------------------------------------------------------------------------------------

By: Rambozo

e-|-------------------------------------------------------------------------
B-|-------------------------------------------------------------------------
G-|-------------------------------------------------------------------------
D-|-19-19-14-17-17-16-15-15-13----------19-19-14-17-17-16-15-15-13----------
A-|-17-17-16-15-15-14-13-13-12-15-14-10-17-17-16-15-15-14-13-13-12-15-14-10-
E-|----------------------------13-12--8----------------------------13-12--8-

e-|-------------------------------------------------------------------------
B-|-------------------------------------------------------------------------
G-|-------------------------------------------------------------------------
D-|-19-19-14-17-17-16-15-15-13----------19-19-14-17-17-16-15-15-13----------
A-|-17-17-16-15-15-14-13-13-12-15-14-10-17-17-16-15-15-14-13-13-12-15-14-10-
E-|----------------------------13-12--8----------------------------13-12--8-

e-|-----------------------------------------------------------
B-|-----------------------------------------------------------
G-|-----------5---------------------------------5-------------
D-|-------5h8---x-x-10----------------------5h8---x-x-10------
A-|-x-7-7-------x-x--8-10-10-10-9-9-9-x-7-7-------x-x--8-10-9-
E-|-x-5-5---------------8--8--8-7-7-7-x-5-5---------------8-7-

e-|-----------------------------------------------------------|
B-|-----------------------------------------------------------|
G-|-----------5---------------------------------5-------------|
D-|-------5h8---x-x-10----------------------5h8---x-x-10------|
A-|-x-7-7-------x-x--8-10-10-10-9-9-9-x-7-7-------x-x--8-10-9-|
E-|-x-5-5---------------8--8--8-7-7-7-x-5-5---------------8-7-|

e-|------------------------------------------------------------------------|
B-|------------------------------------------------------------------------|
G-|------------------------------------------------------------------------|
D-|------------------------------------------------------------------------|
A-|-7-7-7-7--3-3-3-3-5-5-5-5-5-5-5-5-5-3-5-7-7-7-7-3-3-3-3-5-5-5-5-2-2-2-2-|
E-|-5-5-5-5--1-1-1-1-3-3-3-3-3-3-3-3-3-1-3-5-5-5-5-1-1-1-1-3-3-3-3-0-0-0-0-|

e-|-----------------------------------------------------------
B-|-----------------------------------------------------------
G-|-----------5---------------------------------5-------------
D-|-------5h8---x-x-10----------------------5h8---x-x-10------
A-|-x-7-7-------x-x--8-10-10-10-9-9-9-x-7-7-------x-x--8-10-9-
E-|-x-5-5---------------8--8--8-7-7-7-x-5-5---------------8-7-

e-|-----------------------------------------------------------|
B-|-----------------------------------------------------------|
G-|-----------5---------------------------------5-------------|
D-|-------5h8---x-x-10----------------------5h8---x-x-10------|
A-|-x-7-7-------x-x--8-10-10-10-9-9-9-x-7-7-------x-x--8-10-9-|
E-|-x-5-5---------------8--8--8-7-7-7-x-5-5---------------8-7-|

e-|-----------------------------------------------------
B-|-----------------------------------------------------
G-|-----------------------------------------------------
D-|-----------------------------------------------------
A-|-7-7-7-7-3-3-3-3-5-5-5-5-2-2-2-3-5-7-7-7-7-3-3-3-3---
E-|-5-5-5-5-1-1-1-1-3-3-3-3-0-0-0-1-3-5-5-5-5-1-1-1-1---

e-|-------------------------------------------|
B-|-------------------------------------------|
G-|-------------------------------------------|
D-|-------------------------------------------|
A-|-5-5-5-5-5-5-2-5-5-5-5-5-5-2-5-5-5-5-5-5-2-|
E-|-3-3-3-3-3-3-0-3-3-3-3-3-3-0-3-3-3-3-3-3-0-|

e-|-----------------------------------------------------------
B-|-----------------------------------------------------------
G-|-----------5---------------------------------5-------------
D-|-------5h8---x-x-10----------------------5h8---x-x-10------
A-|-x-7-7-------x-x--8-10-10-10-9-9-9-x-7-7-------x-x--8-10-9-
E-|-x-5-5---------------8--8--8-7-7-7-x-5-5---------------8-7-

e-|-----------------------------------------------------------|
B-|-----------------------------------------------------------|
G-|-----------5-----------------------------------------------|
D-|-------5h8---x-x-10----------------------7-7-7-7-7-7-7-5-7-|
A-|-x-7-7-------x-x--8-10-10-10-9-9-9-x-7-7-5-5-5-5-5-5-5-3-5-|
E-|-x-5-5---------------8--8--8-7-7-7-x-5-5-------------------|

e-|-------------------------------------------------------------------------
B-|-------------------------------------------------------------------------
G-|---5-7-9-----------------------------------------------------------------
D-|-7-----------------------5-5-5-5-5-5-5-5-7-7-7-7-7-7-7-7-----------------
A-|---------7-7-7-7-7-7-7-7-3-3-3-3-3-3-3-3-5-5-5-5-5-5-5-5-2-2-2-2-2-2-2-2-
E-|---------5-5-5-5-5-5-5-5---------------------------------0-0-0-0-0-0-0-0-

e-|-----------------------------------------------------------------
B-|-----------------------------------------------------------------
G-|-----------------------------------------------------------------
D-|-----------------5-5-5-5-5-5-5-5-7-7-7-7-7-7-7-7-----------------
A-|-7-7-7-7-7-7-7-7-3-3-3-3-3-3-3-3-5-5-5-5-5-5-5-5-2-2-2-2-2-2-2-2-
E-|-5-5-5-5-5-5-5-5---------------------------------0-0-0-0-0-0-0-0-

e-|-----------------------------------------------------------------
B-|-----------------------------------------------------------------
G-|-----------------------------------------------------------------
D-|-----------------5-5-5-5-5-5-5-5-7-7-7-7-7-7-7-7-----------------
A-|-7-7-7-7-7-7-7-7-3-3-3-3-3-3-3-3-5-5-5-5-5-5-5-5-2-2-2-2-2-2-2-2-
E-|-5-5-5-5-5-5-5-5---------------------------------0-0-0-0-0-0-0-0-

e-|-------------------------------------------------------------
B-|-------------------------------------------------------------
G-|-------------------------------------------------------------
D-|-5-7---------------------------------------------------------
A-|-3-5---5-5-5-5-5-5-2--5-5-5-5-5-5-5-2-5-5-5-5-5-5-5-2--5-5-5-
E-|-------3-3-3-3-3-3-0--3-3-3-3-3-3-3-0-3-3-3-3-3-3-3-0--3-3-3-

e-|-------------------------------------
B-|-------------------------------------
G-|-------------------------------------
D-|-19-19-14-17-17-16-15-15-13----------
A-|-17-17-16-15-15-14-13-13-12-15-14-10-
E-|----------------------------13-12--8-

   =====================================================================



Lagwagon albums
2003 Blaze
1998 Let's Talk About Feelings
1997 Double Plaidinum
1995 Hoss
1994 Trashed
1992 Duh
Hoss tabs
01Kids Don't Like To Share tabbass tab
02Violins tabbass tab
03Name Dropping tabbass tab
04Bombs Away tabbass tab
05Move The Car tabbass tab
06Sleep tabbass tab
07Sick tabbass tab
08Rifle tabbass tab
09Weak tabbass tab
10Black Eyes tabbass tab
11Bro Dependent tabbass tab
12Razor Burn tabbass tab
13Shaving Your Head tabbass tab
14Ride The Snake tabbass tab

 

1