Search tabs:
Browse artists: 0-9 | A | B | C | D | E | F | G | H | I | J | K | L | M | N | O | P | Q | R | S | T | U | V | W | X | Y | Z
/ Lagwagon / Hoss (1995) / Sick guitar tab

-------------------------------------------------------------------------------------------------------------------
                              SICK - Lagwagon
-------------------------------------------------------------------------------------------------------------------

By: Rambozo

e-|-------------------------------------------------------------------------
B-|-------------------------------------------------------------------------
G-|-------------------------------------------------------------------------
D-|---------9-9-9-9-10-10-10-10---------------------9-9-9-9-7-7-7-7-5-5-5-5-
A-|-7-7-7-7-7-7-7-7--8--8--8--8-10-10-10-10-7-7-7-7-7-7-7-7-5-5-5-5-3-3-3-3-
E-|-5-5-5-5----------------------8--8--8--8-5-5-5-5-------------------------

e-|---------------------------------------------------------------------
B-|---------------------------------------------------------------------
G-|---------------------------------------------------------------------
D-|-----------------------------7-7-7-7---------------------------------
A-|-7-7-7-7-9-9-9-9-10-10-10-10-5-5-5-5-5-5-5-5-5-5-5-5-3-3-3-3-3-3-3-3-
E-|-5-5-5-5-7-7-7-7--8--8--8--8---------3-3-3-3-3-3-3-3-1-1-1-1-1-1-1-1-

e-|-------------------------------------------------------------------------
B-|-------------------------------------------------------------------------
G-|-------------------------------------------------------------------------
D-|---------9-9-9-9-10-10-10-10---------------------9-9-9-9-7-7-7-7-5-5-5-5-
A-|-7-7-7-7-7-7-7-7--8--8--8--8-10-10-10-10-7-7-7-7-7-7-7-7-5-5-5-5-3-3-3-3-
E-|-5-5-5-5----------------------8--8--8--8-5-5-5-5-------------------------

e-|---------------------------------------------------------------------
B-|---------------------------------------------------------------------
G-|---------------------------------------------------------------------
D-|-----------------------------7-7-7-7---------------------------------
A-|-7-7-7-7-9-9-9-9-10-10-10-10-5-5-5-5-5-5-5-5-5-5-5-5-3-3-3-3-3-3-3-3-
E-|-5-5-5-5-7-7-7-7--8--8--8--8---------3-3-3-3-3-3-3-3-1-1-1-1-1-1-1-1-

e-|-------------------------------------------------------------------------
B-|-------------------------------------------------------------------------
G-|-------------------------------------------------------------------------
D-|---------9-9-9-9-10-10-10-10---------------------9-9-9-9-7-7-7-7-5-5-5-5-
A-|-7-7-7-7-7-7-7-7--8--8--8--8-10-10-10-10-7-7-7-7-7-7-7-7-5-5-5-5-3-3-3-3-
E-|-5-5-5-5----------------------8--8--8--8-5-5-5-5-------------------------

e-|---------------------------------------------------------------------
B-|---------------------------------------------------------------------
G-|---------------------------------------------------------------------
D-|-----------------------------7-7-7-7---------------------------------
A-|-7-7-7-7-9-9-9-9-10-10-10-10-5-5-5-5-5-5-5-5-5-5-5-5-3-3-3-3-3-3-3-3-
E-|-5-5-5-5-7-7-7-7--8--8--8--8---------3-3-3-3-3-3-3-3-1-1-1-1-1-1-1-1-

e-|-------------------------------------------------------------------------
B-|-------------------------------------------------------------------------
G-|-------------------------------------------------------------------------
D-|---------9-9-9-9-10-10-10-10---------------------9-9-9-9-7-7-7-7-5-5-5-5-
A-|-7-7-7-7-7-7-7-7--8--8--8--8-10-10-10-10-7-7-7-7-7-7-7-7-5-5-5-5-3-3-3-3-
E-|-5-5-5-5----------------------8--8--8--8-5-5-5-5-------------------------

e-|---------------------------------------------------------------------|
B-|---------------------------------------------------------------------|
G-|---------------------------------------------------------------------|
D-|-----------------------------7-7-7-7---------------------------------|
A-|-7-7-7-7-9-9-9-9-10-10-10-10-5-5-5-5-5-5-5-5-5-5-5-5-3-3-3-3-3-3-3-3-|
E-|-5-5-5-5-7-7-7-7--8--8--8--8---------3-3-3-3-3-3-3-3-1-1-1-1-1-1-1-1-|

e-|-----------------------------------------------------------------
B-|-----------------------------------------------------------------
G-|-----------------------------------------------------------------
D-|-5-5-5-5-5-5-5-5-----------------9-9-9-9-9-9-9-9-----------------
A-|-3-3-3-3-3-3-3-3-5-5-5-5-5-5-5-5-7-7-7-7-7-7-7-7-2-2-2-2-2-2-2-2-
E-|-----------------3-3-3-3-3-3-3-3-----------------0-0-0-0-0-0-0-0-

e-|-----------------------------------------------------------------
B-|-----------------------------------------------------------------
G-|-----------------------------------------------------------------
D-|-----------------------------3-3-5-5-5-5-5-5-5-5-----------------
A-|-3-3-3-3-3-3-3-3-3-3-3-3-3-3-1-1-3-3-3-3-3-3-3-3-5-5-5-5-5-5-5-5-
E-|-1-1-1-1-1-1-1-1-1-1-1-1-1-1---------------------3-3-3-3-3-3-3-3-

e-|-------------------------------------------------------------|
B-|-------------------------------------------------------------|
G-|-------------------------------------------------------------|
D-|-9-9-9-9-9-9-9-9---------------------------------------------|
A-|-7-7-7-7-7-7-7-7-2-2-2-2-2-2-2-2-3-3-3-3-3-3-3-3-3-3-3-3-3-3-|
E-|-----------------0-0-0-0-0-0-0-0-1-1-1-1-1-1-1-1-1-1-1-1-1-1-|

e-|-------------------------------------------------------------------------
B-|-------------------------------------------------------------------------
G-|-------------------------------------------------------------------------
D-|---------9-9-9-9-10-10-10-10---------------------9-9-9-9-7-7-7-7-5-5-5-5-
A-|-7-7-7-7-7-7-7-7--8--8--8--8-10-10-10-10-7-7-7-7-7-7-7-7-5-5-5-5-3-3-3-3-
E-|-5-5-5-5----------------------8--8--8--8-5-5-5-5-------------------------

e-|---------------------------------------------------------------------
B-|---------------------------------------------------------------------
G-|---------------------------------------------------------------------
D-|-----------------------------7-7-7-7---------------------------------
A-|-7-7-7-7-9-9-9-9-10-10-10-10-5-5-5-5-5-5-5-5-5-5-5-5-3-3-3-3-3-3-3-3-
E-|-5-5-5-5-7-7-7-7--8--8--8--8---------3-3-3-3-3-3-3-3-1-1-1-1-1-1-1-1-

e-|-------------------------------------------------------------------
B-|-------------------------------------------------------------------
G-|-------------------------------------------------------------------
D-|---------9-9-9-9-10-10-10-10----------------------9--9--7--7--5--5-
A-|-7-7-7-7-7-7-7-7--8--8--8--8-10-10-10-10--7---7--7--7--5--5--3--3--
E-|-5-5-5-5----------------------8--8--8--8-5---5---------------------

e-|---------------------------------------------------------------------|
B-|---------------------------------------------------------------------|
G-|---------------------------------------------------------------------|
D-|-----------------------------7-7-7-7---------------------------------|
A-|-7-7-7-7-9-9-9-9-10-10-10-10-5-5-5-5-5-5-5-5-5-5-5-5-3-3-3-3-3-3-3-3-|
E-|-5-5-5-5-7-7-7-7--8--8--8--8---------3-3-3-3-3-3-3-3-1-1-1-1-1-1-1-1-|

e-|-----------------------------------------------------------------
B-|-----------------------------------------------------------------
G-|-----------------------------------------------------------------
D-|-5-5-5-5-5-5-5-5-----------------9-9-9-9-9-9-9-9-----------------
A-|-3-3-3-3-3-3-3-3-5-5-5-5-5-5-5-5-7-7-7-7-7-7-7-7-2-2-2-2-2-2-2-2-
E-|-----------------3-3-3-3-3-3-3-3-----------------0-0-0-0-0-0-0-0-

e-|-----------------------------------------------------------------
B-|-----------------------------------------------------------------
G-|-----------------------------------------------------------------
D-|-----------------------------3-3-5-5-5-5-5-5-5-5-----------------
A-|-3-3-3-3-3-3-3-3-3-3-3-3-3-3-1-1-3-3-3-3-3-3-3-3-5-5-5-5-5-5-5-5-
E-|-1-1-1-1-1-1-1-1-1-1-1-1-1-1---------------------3-3-3-3-3-3-3-3-

e-|-------------------------------------------------------------|
B-|-------------------------------------------------------------|
G-|-------------------------------------------------------------|
D-|-9-9-9-9-9-9-9-9---------------------------------------------|
A-|-7-7-7-7-7-7-7-7-2-2-2-2-2-2-2-2-3-3-3-3-3-3-3-3-3-3-3-3-3-3-|
E-|-----------------0-0-0-0-0-0-0-0-1-1-1-1-1-1-1-1-1-1-1-1-1-1-|

e-|-------------------------------------------------------------------
B-|-------------------------------------------------------------------
G-|-------------------------------------------------------------------
D-|----------9-9-9-10-10-10-12-12-12----------9-9-9-10-10-10-12-12-12-
A-|-10-10-10-7-7-7--8--8--8-10-10-10-10-10-10-7-7-7--8--8--8-10-10-10-
E-|--8--8--8--------------------------8--8--8-------------------------

e-|-----------------------------------------------|
B-|-----------------------------------------------|
G-|-----------------------------------------------|
D-|----------9-9-9-10-10-10-12-12-12------7---5---|
A-|-10-10-10-7-7-7--8--8--8-10-10-10--7-5-5-3-3-8-|
E-|--8--8--8--------------------------5-3---1---6-|

e-|-----------------------------------------------
B-|-----------------------------------------------
G-|-----------------------------------------------
D-|--------10-9-10-14-15-14-12-14-12-10-9-10----9-
A-|-7-9-10--8-7--8-12-13-12-10-12-10--8-7--8-10-7-
E-|-5-7--8------------------------------------8---

e-|-----------------------------------------------
B-|-----------------------------------------------
G-|-----------------------------------------------
D-|--------10-9-10-14-15-14-12-14-12-10-9-10----9-
A-|-7-9-10--8-7--8-12-13-12-10-12-10--8-7--8-10-7-
E-|-5-7--8------------------------------------8---

e-|-------------------------------------------------
B-|-------------------------------------------------
G-|-------------------------------------------------
D-|--------10-9-10-14-15-14-12-14-12-14-12-10-14-12-
A-|-7-9-10--8-7--8-12-13-12-10-12-10-12-10--8-12-10-
E-|-5-7--8------------------------------------------

e-|-------------------------------------------------------------------------
B-|-------------------------------------------------------------------------
G-|-------------------------------------------------------------------------
D-|---------9-9-9-9-10-10-10-10---------------------9-9-9-9-7-7-7-7-5-5-5-5-
A-|-7-7-7-7-7-7-7-7--8--8--8--8-10-10-10-10-7-7-7-7-7-7-7-7-5-5-5-5-3-3-3-3-
E-|-5-5-5-5----------------------8--8--8--8-5-5-5-5-------------------------

e-|---------------------------------------------------------------------
B-|---------------------------------------------------------------------
G-|---------------------------------------------------------------------
D-|-----------------------------7-7-7-7---------------------------------
A-|-7-7-7-7-9-9-9-9-10-10-10-10-5-5-5-5-5-5-5-5-5-5-5-5-3-3-3-3-3-3-3-3-
E-|-5-5-5-5-7-7-7-7--8--8--8--8---------3-3-3-3-3-3-3-3-1-1-1-1-1-1-1-1-

e-|---------------------------------------------------------------------
B-|---------------------------------------------------------------------
G-|---------------------------------------------------------------------
D-|---------9-9-9-9-10-10-10-10-12-12-12-12---------9-9-9-9-10-10-10-10-
A-|-7-7-7-7-7-7-7-7--8--8--8--8-10-10-10-10-7-7-7-7-7-7-7-7--8--8--8--8-
E-|-5-5-5-5---------------------------------5-5-5-5---------------------

e-|------------------------------------------------------etc
B-|------------------------------------------------------etc
G-|------------------------------------------------------etc
D-|----------------------9-9-9-9-10-10-10-10-------------etc
A-|-10-10-10-10--7-7-7-7-7-7-7-7--8--8--8--8-10-10-10-10-etc
E-|--8--8--8--8--5-5-5-5----------------------8--8--8--8-etc

   =====================================================================



Lagwagon albums
2003 Blaze
1998 Let's Talk About Feelings
1997 Double Plaidinum
1995 Hoss
1994 Trashed
1992 Duh
Hoss tabs
01Kids Don't Like To Share tabbass tab
02Violins tabbass tab
03Name Dropping tabbass tab
04Bombs Away tabbass tab
05Move The Car tabbass tab
06Sleep tabbass tab
07Sick tabbass tab
08Rifle tabbass tab
09Weak tabbass tab
10Black Eyes tabbass tab
11Bro Dependent tabbass tab
12Razor Burn tabbass tab
13Shaving Your Head tabbass tab
14Ride The Snake tabbass tab

 

1