Search tabs:
Browse artists: 0-9 | A | B | C | D | E | F | G | H | I | J | K | L | M | N | O | P | Q | R | S | T | U | V | W | X | Y | Z
/ Lagwagon / Hoss (1995) / Sleep guitar tab

---------------------------------------------------------------------------------------------------------------------------
                             SLEEP - Lagwagon
---------------------------------------------------------------------------------------------------------------------------

By: Rambozo

e-|------------------------------------------------
B-|------------------------------------------------
G-|------------------------------------------------
D-|-6---4--6-9-4-9-6-9-4-9-6-5-4---4-9-9-9-9-9-9-9-
A-|-4-7-2--4-7-2-7-4-7-2-7-4-3-2-7-2-7-7-7-7-7-7-7-
E-|---5--------------------------5-----------------

e-|----------------------------------------
B-|----------------------------------------
G-|----------------------------------------
D-|-9-6-9-4-9-6-9-4-9-6-5-4---4--9-6-5-7-9-
A-|-7-4-7-2-7-4-7-2-7-4-3-2-7-2--7-4-3-6-7-
E-|-------------------------5--------------

e-|-----------------------------------------------------------------
B-|-----------------------------------------------------------------
G-|-----------------------------------------------------------------
D-|-----------------4-4-4-4-4-4-4-4-9-9-9-9-9-9-9-9---6-------------
A-|-7-7-7-7-7-7-7-7-2-2-2-2-2-2-2-2-7-7-7-7-7-7-7-7-6-4-7-7-7-7-7-7-
E-|-5-5-5-5-5-5-5-5---------------------------------4---5-5-5-5-5-5-

e-|-----------------------------------------------------------------------
B-|-----------------------------------------------------------------------
G-|-----------------------------------------------------------------------
D-|-4-4-4-4-9-9-9-9-9-9-9-------------8-8-6-6-------------4-4-4-4-4-4-4-4-
A-|-2-2-2-2-7-7-7-7-7-7-7-x-x-2-x-x-2-6-6-4-4-7-7-7-7-7-7-2-2-2-2-2-2-2-2-
E-|-----------------------x-x-0-x-x-0---------5-5-5-5-5-5-----------------

e-|---------------------------------------------------------|
B-|---------------------------------------------------------|
G-|---------------------------------------------------------|
D-|-9-9-9-9-9-9-9-9-----6-6-----------------4-4-4-4-4-4-4-4-|
A-|-7-7-7-7-7-7-7-7-6-6-4-4-7-7-7-7-7-7-7-7-2-2-2-2-2-2-2-2-|
E-|-----------------4-4-----5-5-5-5-5-5-5-5-----------------|

e-|-------------------------------------------------------------------------
B-|-------------------------------------------------------------------------
G-|-------------------------------------------------------------------------
D-|-9-6---4-9-6---4-9-6-5-4---4-9-9-9-9--9-6---4-9-6---4-9-6-5-4---4-9-9-9-9
A-|-7-4-7-2-7-4-7-2-7-4-3-2-7-2-7-7-7-7--7-4-7-2-7-4-7-2-7-4-3-2-7-2-7-7-7-7
E-|-----5-------5-----------5----------------5-------5-----------5----------

e-|-----------------------------------|
B-|-----------------------------------|
G-|-----------------------------------|
D-|-9-9-9-9-6-6-6-6-5-5-5-5-8-8-8-8-9-|
A-|-7-7-7-7-4-4-4-4-3-3-3-3-6-6-6-6-7-|
E-|-----------------------------------|

e-|-----------------------------------------------------------------
B-|-----------------------------------------------------------------
G-|-----------------------------------------------------------------
D-|-----------------4-4-4-4-4-4-4-4-9-9-9-9-9-9-9-9---6-------------
A-|-7-7-7-7-7-7-7-7-2-2-2-2-2-2-2-2-7-7-7-7-7-7-7-7-6-4-7-7-7-7-7-7-
E-|-5-5-5-5-5-5-5-5---------------------------------4---5-5-5-5-5-5-

e-|-----------------------------------------------------------------------
B-|-----------------------------------------------------------------------
G-|-----------------------------------------------------------------------
D-|-4-4-4-4-9-9-9-9-9-9-9-------------8-8-6-6-------------4-4-4-4-4-4-4-4-
A-|-2-2-2-2-7-7-7-7-7-7-7-x-x-2-x-x-2-6-6-4-4-7-7-7-7-7-7-2-2-2-2-2-2-2-2-
E-|-----------------------x-x-0-x-x-0---------5-5-5-5-5-5-----------------

e-|-----------------------------------------------------------|
B-|-----------------------------------------------------------|
G-|-----------------------------------------------------------|
D-|-9-9-9-9-9-9-9-9-----6-6-----------------4-4-4-4-4-4-4-4-9-|
A-|-7-7-7-7-7-7-7-7-6-6-4-4-7-7-7-7-7-7-7-7-2-2-2-2-2-2-2-2-7-|
E-|-----------------4-4-----5-5-5-5-5-5-5-5-------------------|

e-|-----------------------------------------
B-|-----------------------------------------
G-|-----------------------------------------
D-|-6-9-4-9-6-9-4-9-6-5-4---4-9-9-9-9-9-9-9-
A-|-4-7-2-7-4-7-2-7-4-3-2-7-2-7-7-7-7-7-7-7-
E-|-----------------------5-----------------

e-|----------------------------------------
B-|----------------------------------------
G-|----------------------------------------
D-|-9-6-9-4-9-6-9-4-9-6-5-4---4--9-6-5-7-9-
A-|-7-4-7-2-7-4-7-2-7-4-3-2-7-2--7-4-3-6-7-
E-|-------------------------5--------------

e-|-----------------------------------------------------------------
B-|-----------------------------------------------------------------
G-|-----------------------------------------------------------------
D-|-----------------4-4-4-4-4-4-4-4-9-9-9-9-9-9-9-9---6-------------
A-|-7-7-7-7-7-7-7-7-2-2-2-2-2-2-2-2-7-7-7-7-7-7-7-7-6-4-7-7-7-7-7-7-
E-|-5-5-5-5-5-5-5-5---------------------------------4---5-5-5-5-5-5-

e-|-----------------------------------------------------------------------
B-|-----------------------------------------------------------------------
G-|-----------------------------------------------------------------------
D-|-4-4-4-4-9-9-9-9-9-9-9-------------8-8-6-6-------------4-4-4-4-4-4-4-4-
A-|-2-2-2-2-7-7-7-7-7-7-7-x-x-2-x-x-2-6-6-4-4-7-7-7-7-7-7-2-2-2-2-2-2-2-2-
E-|-----------------------x-x-0-x-x-0---------5-5-5-5-5-5-----------------

e-|-----------------------------------------------------------|
B-|-----------------------------------------------------------|
G-|-----------------------------------------------------------|
D-|-9-9-9-9-9-9-9-9-----6-6-----------------4-4-4-4-4-4-4-4-9-|
A-|-7-7-7-7-7-7-7-7-6-6-4-4-7-7-7-7-7-7-7-7-2-2-2-2-2-2-2-2-7-|
E-|-----------------4-4-----5-5-5-5-5-5-5-5-------------------|

   =====================================================================



Lagwagon albums
2003 Blaze
1998 Let's Talk About Feelings
1997 Double Plaidinum
1995 Hoss
1994 Trashed
1992 Duh
Hoss tabs
01Kids Don't Like To Share tabbass tab
02Violins tabbass tab
03Name Dropping tabbass tab
04Bombs Away tabbass tab
05Move The Car tabbass tab
06Sleep tabbass tab
07Sick tabbass tab
08Rifle tabbass tab
09Weak tabbass tab
10Black Eyes tabbass tab
11Bro Dependent tabbass tab
12Razor Burn tabbass tab
13Shaving Your Head tabbass tab
14Ride The Snake tabbass tab

 

1