Search tabs:
Browse artists: 0-9 | A | B | C | D | E | F | G | H | I | J | K | L | M | N | O | P | Q | R | S | T | U | V | W | X | Y | Z
/ Lagwagon / Hoss (1995) / Violins guitar tab

---------------------------------------------------------------------------------------------------------------------------
                            VIOLINS - Lagwagon
---------------------------------------------------------------------------------------------------------------------------

By: Rambozo

e-|-------------------------------------------------------------------------
B-|-------------------------------------------------------------------------
G-|-------------------------------------------------------------------------
D-|-5-5-5-5-5-5-5-5-7-7-7-7-7-7-7-7-9-9-9-9-9-9-9-9-10-10-10-10-10-10-10-10-
A-|-3-3-3-3-3-3-3-3-5-5-5-5-5-5-5-5-7-7-7-7-7-7-7-7--8--8--8--8--8--8--8--8-
E-|-------------------------------------------------------------------------

e-|------------------------------------------------------------------
B-|------------------------------------------------------------------
G-|------------------------------------------------------------------
D-|-5-x-x-x-x-x-x-x---------------------------------10-x-x-x-x-x-x-x-
A-|-3-x-x-x-x-x-x-x-5-x-x-x-x-x-x-x-2-x-x-x-x-x-x-x--8-x-x-x-x-x-x-x-
E-|-----------------3-x-x-x-x-x-x-x-0-x-x-x-x-x-x-x------------------

e-|------------------------------------------------------------------
B-|------------------------------------------------------------------
G-|------------------------------------------------------------------
D-|-5-x-x-x-x-x-x-x---------------------------------10-x-x-x-x-x-x-x-
A-|-3-x-x-x-x-x-x-x-5-x-x-x-x-x-x-x-2-x-x-x-x-x-x-x--8-x-x-x-x-x-x-x-
E-|-----------------3-x-x-x-x-x-x-x-0-x-x-x-x-x-x-x------------------

e-|------------------------------------------------------------------
B-|------------------------------------------------------------------
G-|------------------------------------------------------------------
D-|-5-x-x-x-x-x-x-x---------------------------------10-x-x-x-x-x-x-x-
A-|-3-x-x-x-x-x-x-x-5-x-x-x-x-x-x-x-2-x-x-x-x-x-x-x--8-x-x-x-x-x-x-x-
E-|-----------------3-x-x-x-x-x-x-x-0-x-x-x-x-x-x-x------------------

e-|-------------------------------------------------------------------------
B-|-------------------------------------------------------------------------
G-|-------------------------------------------------------------------------
D-|-5-5-5-5-5-5-5-5---------------------------------10-10-10-10-10-10-10-10-
A-|-3-3-3-3-3-3-3-3-5-5-5-5-5-5-5-5-2-2-2-2-2-2-2-2--8--8--8--8--8--8--8--8-
E-|-----------------3-3-3-3-3-3-3-3-0-0-0-0-0-0-0-0-------------------------

e-|------------------------------------------------------------------------
B-|------------------------------------------------------------------------
G-|------------------------------------------------------------------------
D-|-5-5-5-5-5-5-5-5-----------------10-10-10-10-10-10-10-12-12-12-12-12-12-
A-|-3-3-3-3-3-3-3-3-8-8-8-8-8-8-8-8--8--8--8--8--8--8--8-10-10-10-10-10-10-
E-|-----------------6-6-6-6-6-6-6-6----------------------------------------

e-|------------------------------------------------------------------
B-|------------------------------------------------------------------
G-|------------------------------------------------------------------
D-|-5-x-x-x-x-x-x-x---------------------------------10-x-x-x-x-x-x-x-
A-|-3-x-x-x-x-x-x-x-5-x-x-x-x-x-x-x-2-x-x-x-x-x-x-x--8-x-x-x-x-x-x-x-
E-|-----------------3-x-x-x-x-x-x-x-0-x-x-x-x-x-x-x------------------

e-|------------------------------------------------------------------
B-|------------------------------------------------------------------
G-|------------------------------------------------------------------
D-|-5-x-x-x-x-x-x-x---------------------------------10-x-x-x-x-x-x-x-
A-|-3-x-x-x-x-x-x-x-5-x-x-x-x-x-x-x-2-x-x-x-x-x-x-x--8-x-x-x-x-x-x-x-
E-|-----------------3-x-x-x-x-x-x-x-0-x-x-x-x-x-x-x------------------

e-|------------------------------------------------------------------
B-|------------------------------------------------------------------
G-|------------------------------------------------------------------
D-|-5-x-x-x-x-x-x-x---------------------------------10-x-x-x-x-x-x-x-
A-|-3-x-x-x-x-x-x-x-5-x-x-x-x-x-x-x-2-x-x-x-x-x-x-x--8-x-x-x-x-x-x-x-
E-|-----------------3-x-x-x-x-x-x-x-0-x-x-x-x-x-x-x------------------

e-|-------------------------------------------------------------------------
B-|-------------------------------------------------------------------------
G-|-------------------------------------------------------------------------
D-|-5-5-5-5-5-5-5-5---------------------------------10-10-10-10-10-10-10-10-
A-|-3-3-3-3-3-3-3-3-5-5-5-5-5-5-5-5-2-2-2-2-2-2-2-2--8--8--8--8--8--8--8--8-
E-|-----------------3-3-3-3-3-3-3-3-0-0-0-0-0-0-0-0-------------------------

e-|------------------------------------------------------------------------
B-|------------------------------------------------------------------------
G-|------------------------------------------------------------------------
D-|-5-5-5-5-5-5-5-5-----------------10-10-10-10-10-10-10-12-12-12-12-12-12-
A-|-3-3-3-3-3-3-3-3-8-8-8-8-8-8-8-8--8--8--8--8--8--8--8-10-10-10-10-10-10-
E-|-----------------6-6-6-6-6-6-6-6----------------------------------------

e-|------------------------------------------------------------------------
B-|------------------------------------------------------------------------
G-|------------------------------------------------------------------------
D-|-5-5-5-5-5-5-5-5-----------------10-10-10-10-10-10-10-12-12-12-12-12-12-
A-|-3-3-3-3-3-3-3-3-8-8-8-8-8-8-8-8--8--8--8--8--8--8--8-10-10-10-10-10-10-
E-|-----------------6-6-6-6-6-6-6-6----------------------------------------

e-|------------------------------------------------------------------
B-|------------------------------------------------------------------
G-|------------------------------------------------------------------
D-|-----------------5-7-9-7-5-7-9-10-9-10-12-10-9-7-3-2-10-5-7-9-7-5-
A-|-8-8-x-x-8-8-x-x-3-5-7-5-3-5-7--8-7--8-10--8-7-5-3-2--8-3-5-7-5-3-
E-|-6-6-x-x-6-6-x-x--------------------------------------------------

e-|------------------------------
B-|------------------------------
G-|------------------------------
D-|-7-9-10-9-10-12-10-9-14-16-17-
A-|-5-7--8-7--8-10--8-7-12-14-15-
E-|------------------------------

e-|------------------------------------------------------------------
B-|------------------------------------------------------------------
G-|------------------------------------------------------------------
D-|-5-x-x-x-x-x-x-x---------------------------------10-x-x-x-x-x-x-x-
A-|-3-x-x-x-x-x-x-x-5-x-x-x-x-x-x-x-2-x-x-x-x-x-x-x--8-x-x-x-x-x-x-x-
E-|-----------------3-x-x-x-x-x-x-x-0-x-x-x-x-x-x-x------------------

e-|------------------------------------------------------------------
B-|------------------------------------------------------------------
G-|------------------------------------------------------------------
D-|-5-x-x-x-x-x-x-x---------------------------------10-x-x-x-x-x-x-x-
A-|-3-x-x-x-x-x-x-x-5-x-x-x-x-x-x-x-2-x-x-x-x-x-x-x--8-x-x-x-x-x-x-x-
E-|-----------------3-x-x-x-x-x-x-x-0-x-x-x-x-x-x-x------------------

e-|------------------------------------------------------------------
B-|------------------------------------------------------------------
G-|------------------------------------------------------------------
D-|-5-x-x-x-x-x-x-x---------------------------------10-x-x-x-x-x-x-x-
A-|-3-x-x-x-x-x-x-x-5-x-x-x-x-x-x-x-2-x-x-x-x-x-x-x--8-x-x-x-x-x-x-x-
E-|-----------------3-x-x-x-x-x-x-x-0-x-x-x-x-x-x-x------------------

e-|-------------------------------------------------------------------------
B-|-------------------------------------------------------------------------
G-|-------------------------------------------------------------------------
D-|-5-5-5-5-5-5-5-5---------------------------------10-10-10-10-10-10-10-10-
A-|-3-3-3-3-3-3-3-3-5-5-5-5-5-5-5-5-2-2-2-2-2-2-2-2--8--8--8--8--8--8--8--8-
E-|-----------------3-3-3-3-3-3-3-3-0-0-0-0-0-0-0-0-------------------------

e-|------------------------------------------------------------------------
B-|------------------------------------------------------------------------
G-|------------------------------------------------------------------------
D-|-5-5-5-5-5-5-5-5-----------------10-10-10-10-10-10-10-12-12-12-12-12-12-
A-|-3-3-3-3-3-3-3-3-8-8-8-8-8-8-8-8--8--8--8--8--8--8--8-10-10-10-10-10-10-
E-|-----------------6-6-6-6-6-6-6-6----------------------------------------

e-|------------------------------------------------------------------------
B-|------------------------------------------------------------------------
G-|------------------------------------------------------------------------
D-|-5-5-5-5-5-5-5-5-----------------10-10-10-10-10-10-10-12-12-12-12-12-12-
A-|-3-3-3-3-3-3-3-3-8-8-8-8-8-8-8-8--8--8--8--8--8--8--8-10-10-10-10-10-10-
E-|-----------------6-6-6-6-6-6-6-6----------------------------------------

e-|---------------------------------------------------------------------
B-|---------------------------------------------------------------------
G-|---------------------------------------------------------------------
D-|-----------------------------10-10-10-10-12-12-12-12-5-5-5-5---------
A-|-8-8-x-x-8-8-x-x-8-8-x-x-8-8--8--8--8--8-10-10-10-10-3-3-3-3-7-7-7-7-
E-|-6-6-x-x-6-6-x-x-6-6-x-x-6-6---------------------------------5-5-5-5-

e-|---------------------------------------------------------------------
B-|---------------------------------------------------------------------
G-|---------------------------------------------------------------------
D-|-10-10-10-10-12-12-12-12-5-5-5-5---------10-10-10-10-12-12-12-12-5-5-
A-|--8--8--8--8-10-10-10-10-3-3-3-3-7-7-7-7--8--8--8--8-10-10-10-10-3-3-
E-|---------------------------------5-5-5-5-----------------------------

e-|-----------------------------------------------------------------
B-|-----------------------------------------------------------------
G-|-----------------------------------------------------------------
D-|-5-5---------10-10-10-10-12-12-12-12-5-5-5-5---------10-10-10-10-
A-|-3-3-7-7-7-7--8--8--8--8-10-10-10-10-3-3-3-3-7-7-7-7--8--8--8--8-
E-|-----5-5-5-5---------------------------------5-5-5-5-------------

e-|----------------|
B-|----------------|
G-|----------------|
D-|-12-12-12-12-5--|
A-|-10-10-10-10-3--|
E-|----------------|

   =====================================================================



Lagwagon albums
2003 Blaze
1998 Let's Talk About Feelings
1997 Double Plaidinum
1995 Hoss
1994 Trashed
1992 Duh
Hoss tabs
01Kids Don't Like To Share tabbass tab
02Violins tabbass tab
03Name Dropping tabbass tab
04Bombs Away tabbass tab
05Move The Car tabbass tab
06Sleep tabbass tab
07Sick tabbass tab
08Rifle tabbass tab
09Weak tabbass tab
10Black Eyes tabbass tab
11Bro Dependent tabbass tab
12Razor Burn tabbass tab
13Shaving Your Head tabbass tab
14Ride The Snake tabbass tab

 

1