Search tabs:
Browse artists: 0-9 | A | B | C | D | E | F | G | H | I | J | K | L | M | N | O | P | Q | R | S | T | U | V | W | X | Y | Z
/ Lagwagon / Trashed (1994) / Dis' Chords guitar tab

Dischord's
Lagwagon

intro:
e-|------------------------------------------------------------------|
B-|------------------------------------------------------------------|
G-|-------------------14-------------9-------------10----------------|
D-|-xx-xx-xx-xx-xx-12----x-x-x-x-x-7---x-x-x-x-x-8----------------10-|
A-|-12-12-12-12-12-------7-7-7-7-7-----8-8-8-8-8------x-x-x-x-x-8----|
E-|---------------------------------------------------8-8-8-8-8------|
x2
intro/chorus:
e-|-------------------------------------------------------------------------
B-|-------------------------------------------------------------------------
G-|-------------------------------------------------------------------------
D-|-14-14-14-14-14-14-14-14-9-9-9-9-9-9-9-9-10-10-10-10-10-10-10-10-12-12-12
A-|-12-12-12-12-12-12-12-12-7-7-7-7-7-7-7-7--8--8--8--8--8--8--8--8-10-10-10
E-|-------------------------------------------------------------------------

e-|-------------------------------------------------------------------------
B-|-------------------------------------------------------------------------
G-|-------------------------------------------------------------------------
D-|-12-12-12-12-12-14-14-14-14-14-14-14-14-9-9-9-9-9-9-9-9-10-10-10-10-10-10
A-|-10-10-10-10-10-12-12-12-12-12-12-12-12-7-7-7-7-7-7-7-7--8--8--8--8--8--8
E-|-------------------------------------------------------------------------

e-|-------------------------------|-----------------------------------------
B-|-------------------------------|-----------------------------------------
G-|-------------------------------|-------------------5-7-------------------
D-|-10-10-12-12-12-12-12-12-12-12-|---------------5---------------------5---
A-|--8--8-10-10-10-10-10-10-10-10-|-7-7-7-7-5-7-7---7-----5-5-5-5-5-7-7---7-
E-|-------------------------------|-5-5-5-5---------------3-3-3-3-----------

e-|-------------------------------------------------|
B-|-------------------------------------------------|
G-|-5-7-------------------5-7-----------------------|
D-|-----7-7-7-7-------5-------5-x-x-5-x-x-5-x-x-5-4-|
A-|-----5-5-5-5-5-7-7---7-----3-x-x-3-x-x-3-x-x-3-2-|
E-|-------------------------------------------------|
verse:
e-|-------------------------------------------------------------------------
B-|-------------------------------------------------------------------------
G-|-------------------------------------------------------------------------
D-|-----------------7-7-7-7-7-7-7-7-5-x-x-5-9-x-x-9-------------------------
A-|-7-7-7-7-7-7-7-7-5-5-5-5-5-5-5-5-3-x-x-3-7-x-x-7-0h2-3-3-2-2-7-x-x-x-x-x-
E-|-5-5-5-5-5-5-5-5---------------------------------------------5-x-x-x-x-x-

e-|-----------------------------------------------------|
B-|-----------------------------------------------------|
G-|-----------------------------------------------------|
D-|-----7-x-x-x-x-x-x-7-5-x-x-5-9-x-x-9---------7-7-----|
A-|-x-7-5-x-x-x-x-x-x-5-3-x-x-3-7-x-x-7-7-7-5-5-5-5-5-5-|
E-|-x-5---------------------------------5-5-3-3-----3-3-|
bridge:
e-|------------------------|
B-|------------------------|
G-|-14-9-10-----14-9-10----|
D-|-xx-x-xx--10-xx-x-xx-10-|
A-|-12-7--8--xx-12-7--8-xx-|
E-|-----------8----------8-|
outro:
e-|-------------------------------------------------------------------------
B-|-------------------------------------------------------------------------
G-|-10-10-10-14-13-12-12-12-17-16-14-14-14-14-9-9-9-9-10-10-10-14-13-12-12--
D-|-10-10-10-xx-xx-12-12-12-xx-xx-14-14-14-14-9-9-9-9-10-10-10-xx-xx-12-12--
A-|--8--8--8-12-11-10-10-10-15-14-12-12-12-12-7-7-7-7--8--8--8-12-11-10-10--
E-|-------------------------------------------------------------------------

e-|-------------------------------------------------------------------------
B-|-------------------------------------------------------------------------
G-|-12-17-16-14-14-14-14-9-9-9-9-10-10-10-14-13-12-12-12-17-16-14-14-14-14--
D-|-12-xx-xx-14-14-14-14-9-9-9-9-10-10-10-xx-xx-12-12-12-xx-xx-14-14-14-14--
A-|-10-15-14-12-12-12-12-7-7-7-7--8--8--8-12-11-10-10-10-15-14-12-12-12-12--
E-|-------------------------------------------------------------------------

e-|-------------------------------------------------------------------------
B-|-------------------------------------------------------------------------
G-|-9-9-9-9-----------------------------------------------------------------
D-|-9-9-9-9-x-10-x-x-10-x-x-10-x-x-10-x-12-x-x-12-x-x-12-x-x-12-x-10-x-x-10-
A-|-7-7-7-7-x--8-x-x--8-x-x--8-x-x--8-x-10-x-x-10-x-x-10-x-x-10-x--8-x-x--8-
E-|-------------------------------------------------------------------------

e-|-----------------------------------------|
B-|-----------------------------------------|
G-|-----------------------------------------|
D-|-x-x-10-x-x-10-x-12-x-x-12-x-x-12-x-x-12-|
A-|-x-x--8-x-x--8-x-10-x-x-10-x-x-10-x-x-10-|
E-|-----------------------------------------|


Lagwagon albums
2003 Blaze
1998 Let's Talk About Feelings
1997 Double Plaidinum
1995 Hoss
1994 Trashed
1992 Duh
Trashed tabs
01Island Of Shame tabbass tab
02Lazy tabbass tab
03Know It All tabbass tab
04Stokin' The Neighbors tabbass tab
05Give It Back tabbass tab
06Rust tabbass tab
07Goin' South tabbass tab
08Dis' Chords tabbass tab
09Coffee And Cigarettes tabbass tab
10Brown Eyed Girl tabbass tab
11Whipping Boy tabbass tab
12No One tabbass tab
13Bye For Now tabbass tab
14Hidden Track tabbass tab

 

1