Search tabs:
Browse artists: 0-9 | A | B | C | D | E | F | G | H | I | J | K | L | M | N | O | P | Q | R | S | T | U | V | W | X | Y | Z
/ McFly / Room on the Third Floor (2004) / She Left Me guitar tab

She Left Me by McFly
Another great song from their debut album Room on the
Third Floor

Intro/Verse

e|-------3-----------2-----------3-----------2h3-----|
B|-----0---0-------3---3-------1---1-------3-----3---|
G|---0-------0---4-------4---0-------0---2---------2-|
D|-------------------------------------0-------------|
A|-------------2-----------3-------------------------|
E|-3-------------------------------------------------|



e|-------3-----------2-----------3------------------|
B|-----0---0-------3---3-------1---1-------1-3-1----|
G|---0-------0---4-------4---0-------0---0-------0--|
D|--------------------------------------------------|
A|-------------2-----------3-----------3------------|
E|-3------------------------------------------------|





Solo
e|---------------------------------------------------------------|
B|----8-10^(12)--10^(12)--10p8----8--10(11)^(10)--8----8--10-----|
G|--9--------------------------h9-------------------h8-----------|
D|---------------------------------------------------------------|
A|---------------------------------------------------------------|
E|---------------------------------------------------------------|

e|----------15--14--12--14p12------------------------------------|
B|----8--8---------------------15--15--12--15--------------------|
G|--9------------------------------------------12------12--------|
D|-------------------------------------------------14------------|
A|---------------------------------------------------------------|
E|---------------------------------------------------------------|

e|---------------------------------------------------------------|
B|---------------------------------------------------------------|
G|----14(16)(14)---------12h14--^(16)(14)--12------12------------|
D|----------------12h14------------------------14----------------|
A|---------------------------------------------------------------|
E|---------------------------------------------------------------|

e|-----------------------------12--------------------------------|
B|---------------------12--12------15p12--12---------------------|
G|--12h14------12--14-------------------------14p12------12h14---|
D|---------14----------------------------------------14----------|
A|---------------------------------------------------------------|
E|---------------------------------------------------------------|

e|---------------------------------------------------------------|
B|--12-----------------------------------------------------------|
G|------12---------7--9-7-7--9-7-7--9-7-7--9-7-7--9-7-7--9-7-7---|
D|----------14--9------------------------------------------------|
A|---------------------------------------------------------------|
E|---------------------------------------------------------------|

e|---------------------------------------------------------------|
B|----------------12--15--15--15--12--15--15^(17)(15)******------|
G|--9-7-7--9-7-7-------------------------------------------------|
D|---------------------------------------------------------------|
A|---------------------------------------------------------------|
E|---------------------------------------------------------------|


G          EM                             C    D
She walked in and said she didn't want to know anymore
G      EM                       C            D
Before i could ask why, she was gone out the door
BM       EM
I didn't know
BM            EM         C                     D
What i'd done wrong, but now i just can't move on

          G
Since she left me
    EM
She told me
      C
Don't worry
 D                      BM         EM                 C   D
You'll be ok, you don't need me, belive me, you'll be fine
       B             EM              B            EM
Then i knew what she meant, and it's not what she said
    C          D
Now i can't belive, that she's gone

G EM C D

G       EM                    C               D
I tried calling her up on the phone, no one's there
G        EM               C
I left messages after the tone
                                                                D
*answer machine beep and american accents* really dude? i know*
BM       EM
I didn't know
BM         EM
What i did wrong
    C                     D
But now i just can't move on, yeah yeah yeah yeah


          G
Since she left me
    EM
She told me
      C
Don't worry
 D                      BM         EM                 C   D
You'll be ok, you don't need me, belive me, you'll be fine
       B             EM              B            EM
Then i knew what she meant, and it's not what she said
    C          D
Now i can't belive, that she's gone

G EM C D BM EM C D B EM B EM C D

          G
Since she left me
    EM
She told me
          C
Don't you worry
 D                      BM          EM                   C   D
You'll be ok, you don't need me, no belive me, you'll be fine
       B             EM              B            EM
Then i knew what she meant, and it's not what she said
    C          D
Now i can't belive, that she's gone


McFly albums
2004 Room on the Third Floor
Room on the Third Floor tabs
015 Colours in Her Hair tabbass tab
03Room on the 3rd Floor tabbass tab
04That Girl tabbass tab
05Hypnotised tabbass tab
06Saturday Night tabbass tab
07Met This Girl tabbass tab
08She Left Me tabbass tab
09Down by the Lake tabbass tab
10Unsaid Things tabbass tab
11Surfer Babe tabbass tab
12Not Alone tabbass tab
13Broccoli tabbass tab

 

1