Search tabs:
Browse artists: 0-9 | A | B | C | D | E | F | G | H | I | J | K | L | M | N | O | P | Q | R | S | T | U | V | W | X | Y | Z
/ / / guitar tab

Tabber: Kyle Whiteyy (canadian_blood7@hotmail.com)
Song: Every Breath You Take
By: The Police
Date: June 1st '03

**The other versions of this song make u stretch ur fingers halfway
down the fricken fretboard, so my teacher, Bruce, and I came up with
this alternative which sounds exactly identical to the the recording
**Theres really only 3 pieces to this song, so I only tabbed 3 pieces,
the Intro, which continues for a long time, the chorus, and the break,
 which are just simple chords, enjoy!

Intro, repeat as many times as wanted/heard

e------------------------------------------------------------------|
B---------0----------------0---------------------------------------|
G-----2-----2---2------2-----2---2---------0---------------0-------|
D---0---0-----0------0---0-----0-------4-----4---4-----4-----4---4-|
A------------------------------------2---2-----2-----2---2-----2---|
E-3----------------3---------------0---------------0---------------|



e-------------------------------0----------------------------------|
B---------1----3------------3---------3----------------------------|
G-----0-----0----------0--2--------2-------2-----------------------|
D------------------------------------------------------------------|
A-3----------------------------------------------------------------|
E------------------------------------------------------------------|


Chorus (listen to song for strumming patterns)

              C

Oh can't you see,

             Em

you belong to me,

               Am

how my poor heart breaks

             G

with every breath you take.


Break (Since you've been gone I've been lost without a trace...)
[Listen to song for strumming and occurence of each chord]

E--1----------------------3----------
B--1----------------------3----------
G--2----------------------0----------
D--3----------------------0----------
A--3----------------------0----------
E--1----------------------3----------


albums
tabs

 

1