Search tabs:
Browse artists: 0-9 | A | B | C | D | E | F | G | H | I | J | K | L | M | N | O | P | Q | R | S | T | U | V | W | X | Y | Z
/ Rage Against The Machine / Evil Empire (1996) / Wind Below guitar tab

Wind Below
----------

Riff A

doubled one octave lower (w/Whammy)

 4/4                             5/4

|-------------------------------|---------------------------------------|
|-------------------------------|---------------------------------------|
|-4-2-4-5-4-2(2)----------2-----|---------------------------------------|
|---------------4---3-2-----4---|-6/9-----------------------------------|
|-------------------------------|-4/7-------------------x-x-x---x---x-x-|
|-------------------------------|-------7-6-7-9-7-6-0---x-x-x---x---x-x-|
                                                    4th time let ring
                                                   
Riff B


|-10(11)-------------------------|
|---------11(12)--12(13)---------|
|--------------------------------|
|--------------------------------|
|--------------------------------|
|--------------------------------|

Solo

                                                x3
|----------------------------------------19-17-15-|
|----15-17----15-17----15-17----15-17-------------|
|-16-------16-------16-------16-------16----------|
|-------------------------------------------------|
|-------------------------------------------------|
|-------------------------------------------------|


|-----------------------------------------------|
|----15-17----16-18----17-19----18-20---21------|
|-16-------17-------18-------19--------------21-|
|-------------------------------------0----0----|
|-----------------------------------------------|
|-----------------------------------------------|

let ring

|-------24----24---23----23----23--22----22----22--21----21-----|
|-23------23---------22----22----22--21----21----21--20----20\--|
|-----24----24---------23----23--------22----22--------21-------|
|---------------------------------------------------------------|
|---------------------------------------------------------------|
|---------------------------------------------------------------|

|-24----24----24--23----23----23--22----22----22--21----21-----|
|---23----23----23--22----22----22--21----21----21--20----20---|
|-----24----24--------23----23--------22----22--------21-------|
|--------------------------------------------------------------|
|--------------------------------------------------------------|
|--------------------------------------------------------------|

Riff C

|------------------------|--------------------------|
|------------------------|--------------------------|
|-----0------------------|-----0--------------------|
|-----0------------------|-----0--------------------|
|-----0------------------|-----0--------------------|
|-0--------------------\-|-0------------------18b---|
                                             bend up


Rage Against The Machine albums
2000 Renegades
1999 The Battle Of Los Angeles
1996 Evil Empire
1992 Rage Against The Machine
Evil Empire tabs
01People Of The Sun tabbass tab
02Bulls On Parade tabbass tab
03Vietnow tabbass tab
04Revolver tabbass tab
05Snakecharmer tabbass tab
06Tire Me tabbass tab
07Down Rodeo tabbass tab
08Without A Face tabbass tab
09Wind Below tabbass tab
10Roll Right tabbass tab
11Year Of Tha Boomerang tabbass tab

 

1