Search tabs:
Browse artists: 0-9 | A | B | C | D | E | F | G | H | I | J | K | L | M | N | O | P | Q | R | S | T | U | V | W | X | Y | Z
/ Rage Against The Machine / Rage Against The Machine (1992) / Freedom guitar tab

Freedom - Rage Against the Machine
----------------------------------

Dropped D tuning (DADGBE)

Intro:

Part 1:

E-------------------------------------------------x-x-x---
B-------------------------------------------------x-x-x---
G-------------------------------------------------x-x-x---
D---------------------------------------------------------
A---5-------3---------5-5----5-------3----------5---------
E-----0-3-5---5-3-5-3----0-3---0-3-5----5-3-5-3-----------

E---------------------------------------------------------
B---------------------------------------------------------
G---------------------------------------------------------
D-------------------5-5-----------------------5-4-3-------
A-5-------3-----------------5-------3---------------5-4-3-
E---0-3-5---5-3-5-3-----0-3---0-3-5---5-3-5-3-------------

E-------------------------------------------------5-5-5-5------
B--------------------------------------------------------------
G--------------------------------------------------------------
D-------------------5-5-----------------------------------12b5-
A-5-------3-----------------5---------3---------5---------12b5-
E---0-3-5---5-3-5-3-----0-3---0-3-5-5---5-3-5-3----------------

E---------------------------------------------------------
B---------------------------------------------------------
G---------------------------------------------------------
D-------------------5-5-----------------------5-----------
A-5-------3-----------------5-------3---------------------
E---0-3-5---5-3-5-3-----0-3---0-3-5---5-3-5-3-------------

Part 2:

E: --5-5---5-5-----------------------------------------------------------|
B: --5-5---5-5-----------------------------------------------------------|
G: --5-5---5-5-----------------------------------------------------------|
D: --5-5---5-5-etc--5-4-5-4-5--------------------------------------------|
A: --0-0---0-0------3-2-3-2-3--------------------------------------------|
D: --0-0---0-0-----------------------------------------------------------|

After 'anger is a gift':

E---------------------------------------------------------------
B---------------------------------------------------------------
G---------------------------------------------------------------
D---------------------------------------------------------------
A----3-3-3-3-----5-5-3---3-5------------------------------------
D------------5-3-------5----------------------------------------

Changing to: (twice)

E---------------------------------------------------------------
B---------------------------------------------------------------
G----5-5-5-5-----7-7-7-7-7-7-7-7-7-7----------------------------
D------------5-3------------------------------------------------
A---------------------------------------------------------------
D---------------------------------------------------------------

Then:

E---------------------------------------------------------------
B---------------------------------------------------------------
G---5-5-5-5-----7-7-5---5-7-5-5-5-5-----7-----------------------
D-----------5-3-------5-------------5-3---7b12------------------
A---------------------------------------------------------------
D---------------------------------------------------------------

Freedom solo
transcribed by Mike Nuckols

e|--------------------------------------------------------------------
b|---------------------------------------5b6--------------------------
g|---------10--10-9~------5--------5--7------7~------------10---------
d|--10/12------------5--7----5--7------------------10/12--------------
a|--------------------------------------------------------------------
d|--------------------------------------------------------------------

                                rake/sweep          rake/sweep
e|---------------------------------12-13-12-----------12-13-12--------
b|-------------------------------13--------13-------13--------13------
g|---10/12/14/15\14\12\10\9~---14------------14---14------------14----
d|--------------------------------------------------------------------
a|--------------------------------------------------------------------
d|--------------------------------------------------------------------

   rake/sweep
e|-------12-13-15b17b15--15-12-13--15---------------------------------
b|-----13-------------------------------15--15~-----------------------
g|---14---------------------------------------------------------------
d|--------------------------------------------------------------------
a|--------------------------------------------------------------------
d|--------------------------------------------------------------------

E: -----------------------------------------------------------------|
B: -----------------------------------------------------------------|
G: -----------------------------------------------------------------|
D: ----------------5p3--5p3--5-------------------------5--3---------|
A: ---5p3--5p3--5---------------3p2--3p2--3------------5--3---------|
D: ------------------------------------------5p3--5p3--5--3---------|

The end of the song goes:
Play this softly with no distortion. (Normally played by bass)

---------------------------------------------------------------------------- 
----------------------------------------------------------------------------
----------------------------------------------------------------------------
----------------------------------------------------------------------------
--------------------3--4--5-------------------------------------------------
-----0--3--5--6--7----------------------------------------------------------

Next, with heavy distortion:

----------------------------------------------------------------------------
----------------------------------------------------------------------------
----------------------------------------------------------------------------
--------------------5--6--7-------------------------------------------------
-----0--3--5--6--7--3--4--5-------------------------------------------------
-----0--3--5--6--7----------------------------------------------------------


Rage Against The Machine albums
2000 Renegades
1999 The Battle Of Los Angeles
1996 Evil Empire
1992 Rage Against The Machine
Rage Against The Machine tabs
01Bombtrack tabbass tab
02Killing In The Name tabbass tab
03Take The Power Back tabbass tab
04Settle For Nothing tabbass tab
05Bullet In The Head tabbass tab
06Know Your Enemy tabbass tab
07Wake Up tabbass tab
08Fistful Of Steel tabbass tab
09Township Rebellion tabbass tab
10Freedom tabbass tab

 

1