Search tabs:
Browse artists: 0-9 | A | B | C | D | E | F | G | H | I | J | K | L | M | N | O | P | Q | R | S | T | U | V | W | X | Y | Z
/ Rage Against The Machine / Rage Against The Machine (1992) / Know Your Enemy guitar tab

Know Your Enemy 
Tabbed by: Taylor Schultz taylor1623@hotmail.com
Taylor's Rage Page
Intro :
Play Twice
|---------------------------------------|
|---------------------------------------|
|---------------------------------------|
|------------7---------------9-7--------|
|--9-7-9-7-9---9-7-9-7-9-7-9-----7------|
|---------------------------------------|
                                          Play 2x
|---------------------------------------|
|---------------------------------------|
|---------------------------------------|use toggle 
|------------7--------------------------|switch for 
|--9-7-9-7-9---9-7-9-7-7-7-7-7-7--8-----|intro
|---------------------------------------|

Right after intro
|---------------------------------------|
|---------------------------------------|
|---------------4-----------------------|
|---4--4--4--4--2--4--4--4--------------|
|---4--4--4--4--2--2--4--4--------------|
|---2--2--2--2-----2--2--2--------------|
    d  u  d  d  d  d  d  d                play with 
|---------------------------------------|  flange
|---------------------------------------|
|---------------5--4--2-----------------|
|---4--4--4--4--5--4--2-----------------|
|---4--4--4--4--3--3--0-----------------|
|---2--2--2--2--------------------------|
    d  u  d  d  d  d  d

|---------------------------------------|
|---------------------------------------|this is all 
|--------------4------------------------|played twice 
|--4--4--4--4--4--4--4--4---------------|I think
|--4--4--4--4--2--4--4--4---------------|
|--2--2--2--2-----2--2--2---------------|
   d  u  d  d  d  d  d  d

|---------------------------------------|
|---------------------------------------|
|---0--5--0--4--2-----------------------|
|---0--5--0--4--2-----------------------|
|---0--3--0--2--0-----------------------|
|---------------------------------------|
    d  d  d  d  d

|---------------------------------------|
|---------------------------------------|
|---------------------------------------|
|---4-------------------2-3-4-----------|repeat a few 
|-----------------2-3-4-----------------|times, no 
|------2--0--2--5-----------------------|flange
repeat above at end of song as well

|-----------------------------------------|
|-----------------------------------------|
|---------------------------------------5-|maynard 
|4--4--4--4--4--4--4--4--4--4--4--4--4--5-|sings 
|4--4--4--4--4--4--4--4--4--4--4--4--4--3-|here
|2--2--2--2--2--2--2--2--2--2--2--2--2----|
 d  u  d  d  u  d  u  d  d  u  d  u  d  d
|------------------------------------------------|
|------------------------------------------------|
|---------------------------------------5--2--2--|
|4--4--4--4--4--4--4--4--4--4--4--4--4--5--2--2--|
|4--4--4--4--4--4--4--4--4--4--4--4--4--3--4--0--|
|2--2--2--2--2--2--2--2--2--2--2--2--2-----------|



 I have no clue about the Solo.
after solo finishes
|---------------------------------------|
|---------------------------------------|
|-0--6--0--4--0--2----2-----------------|
|-0--6--0--4--0--2----2-----------------|
|-0--4--0--2--0--0----0-----------------|
|---------------------------------------|
  d  d  d  d  d  d    heavy strumming here pull whammy


You should be able to piece all of this together good
and I got the intro from a guitar world where they interviewed Tom.


Rage Against The Machine albums
2000 Renegades
1999 The Battle Of Los Angeles
1996 Evil Empire
1992 Rage Against The Machine
Rage Against The Machine tabs
01Bombtrack tabbass tab
02Killing In The Name tabbass tab
03Take The Power Back tabbass tab
04Settle For Nothing tabbass tab
05Bullet In The Head tabbass tab
06Know Your Enemy tabbass tab
07Wake Up tabbass tab
08Fistful Of Steel tabbass tab
09Township Rebellion tabbass tab
10Freedom tabbass tab

 

1