Search tabs:
Browse artists: 0-9 | A | B | C | D | E | F | G | H | I | J | K | L | M | N | O | P | Q | R | S | T | U | V | W | X | Y | Z
/ Rage Against The Machine / The Battle Of Los Angeles (1999) / Maria guitar tab

Maria
by: rage against the machine
trascribed by jeff johnson

standard tuning

intro/verse - i am using a chorus pedal
|-----------------------------------------|
|---9~~--(not sure of the exact effect)---|
|-----------(if you know tom's setup well)|
|----------------(please email me)--------|
|-----------------------------------------|
|-----------------------------------------|

pre-chorus - put wah all the way up e.g. /_
|-----------------------------------------|
|-----------------------------------------|
|-----------------------------------------|
|---9-------------------------------------|
|---9--(3x)-------------------------------|
|---7-------------------------------------|

chorus
|-----------------------------------------|
|-----------------------------------------|
|-----------------------------------------|
|-5-3-5-3-0-3-----------------------------|
|-------------5-3-5-3--3-0-3-5-3-5--------|
|---------------------------------5-3-5---|

  ------------------------------------------------------------------------
...back to tabulature




Rage Against The Machine albums
2000 Renegades
1999 The Battle Of Los Angeles
1996 Evil Empire
1992 Rage Against The Machine
The Battle Of Los Angeles tabs
01Testify tabbass tab
02Guerrilla Radio tabbass tab
03Calm Like A Bomb tabbass tab
04Mic Check tabbass tab
05Sleep Now In The Fire tabbass tab
06Born Of A Broken Man tabbass tab
07Born As Ghosts tabbass tab
08Maria tabbass tab
09Voice Of The Voiceless tabbass tab
10New Millennium Homes tabbass tab
11Ashes In The Fall tabbass tab
12War Within A Breath tabbass tab

 

1