Search tabs:
Browse artists: 0-9 | A | B | C | D | E | F | G | H | I | J | K | L | M | N | O | P | Q | R | S | T | U | V | W | X | Y | Z
/ Rammstein / Herzeleid (1995) / Du Riechst So Gut guitar tab

Du Riechst so gut

Drop D Tuning
|-e-|
|-B-|
|-G-|
|-D-|
|-A-|
|-D-|

Verse
|-----------------------|
|-----------------------|
|-----------------------|
|-----------------------|
|-0-1--0-1--0-1-1-0-1-0-|
|-0-1--0-1--0-1-1-0-1-0-|
 pm....................]


Chorus
|------------|        |-----------|
|------------|        |-----------|
|-5---10-----|        |-----------|
|-5---10---0-|        |-3--1--0---|
|-3----8---0-|        |-3--1--0---|
|----------0-|        |-3--1--0---|
du riechst so gut/.../ich geh dir hinterher


Solo (tabbed by Brian Mattern)

Don't pick, just hammer on each note and pull off to the open string
each note.
|---------------------------------------|
|---------------------------------------|
|---------------------------------------|
|-17-0-17-0-17-0-17-0-16-0-16-0-16-0-17-|
|---------------------------------------|
|---------------------------------------|

|-----------------------------------------|
|-----------------------------------------|
|-----------------------------------------|
|-0-12-0-12-0-12-0-12-0-14-0-12-0-14-0-12-|
|-----------------------------------------|
|-----------------------------------------|


tabbed by Rebel X (solo by Brian Mattern)
Ramms+ein tabs: http://www.geocities.com/SunsetStrip/Pit/2594/index.html


Rammstein albums
2004 Reise, Reise
2001 Mutter
1997 Sehnsucht
1995 Herzeleid
Herzeleid tabs
01Wollt Ihr Das Bett In Flammen Sehen tabbass tab
02Der Meister tabbass tab
03Weisses Fleisch tabbass tab
04Asche Zu Ache tabbass tab
05Seemann tabbass tab
06Du Riechst So Gut tabbass tab
07Das Alte Lied tabbass tab
08Heirate Mich tabbass tab
09Herzleid tabbass tab
10Laichzeit tabbass tab
11Rammstein tabbass tab

 

1