Search tabs:
Browse artists: 0-9 | A | B | C | D | E | F | G | H | I | J | K | L | M | N | O | P | Q | R | S | T | U | V | W | X | Y | Z
/ Rammstein / Reise, Reise (2004) / Stein Um Stein guitar tab

Rammstein - Stein um Stein
Tabbed By: Rammstein-predator
Email: manuel_larbig@web.de

Tuning: Drop C (C G C F A D)



 Intro
D|-----------------------------||
A|-----------------------------||
F|-----------------------------||
C|--------8-----------8--------||repeat
G|------8---8-------8---8------||
C|0---8-------0---8------------||

Intro ending
C|----------------||
G|----------------||1x
C|3333-5555-------||


Refrain
C|12-12-12-12-12-12-12-12-10-10--88-10-8-88-10-8---||
G|12-12-12-12-12-12-12-12-10-10--88-10-8-88-10-8---||
C|12-12-12-12-12-12-12-12-10-10--88-10-8-88-10-8---||

INTRO
INTRO ENDING

Hard Riff
C|12--------|8--------|7-------|8----3----||
G|12--------|8--------|7-------|8----3----||repeat
C|12--------|8--------|7-------|8----3----||

Solo
D|--------------------------------------------------||
A|b15-b15-b15-b15-b15b15-b15-b15-b15-b15-b15b15-----||
F|--------------------------------------------------||

D|--------------------------------------------------||
A|b15-b15-b15-b15-b15b15-13-10---10-----------------||
F|----------------------------12----9-10------------||

D|--------------------------------------------------||
A|b15-b15-b15-b15-b15b15-b15-b15-b15-b15------------||
F|---------------------------------------b14--------||

D|--------------------------------------------------||
A|b15-b15-b15-b15-b15b15-13-10----10----------------||
F|-----------------------------12----9-10-----------||


During Solo:
C|12-00-12-00-12-00-12-00-10-88-10-88-10-88-10-88-77777777---||
G|12-00-12-00-12-00-12-00-10-88-10-88-10-88-10-88-77777777---||
C|12-00-12-00-12-00-12-00-10-88-10-88-10-88-10-88-77777777---||


HAVE FUN!PLEASE RATE!!!!  RAMMSTEIN RULES!!!!!!!!!!!


Rammstein albums
2004 Reise, Reise
2001 Mutter
1997 Sehnsucht
1995 Herzeleid
Reise, Reise tabs
01Reise, Reise tabbass tab
02Mein Teil tabbass tab
03Dalai Lama tabbass tab
04Keine Lust tabbass tab
05Los tabbass tab
06Amerika tabbass tab
07Moskau tabbass tab
08Morgenstern tabbass tab
09Stein Um Stein tabbass tab
10Ohne Dich tabbass tab
11Amour tabbass tab

 

1