Search tabs:
Browse artists: 0-9 | A | B | C | D | E | F | G | H | I | J | K | L | M | N | O | P | Q | R | S | T | U | V | W | X | Y | Z
/ Rammstein / Sehnsucht (1997) / Du Hast guitar tab

Du Hast

Standard Tuning
|-e-|
|-B-|
|-G-|
|-D-|
|-A-|
|-E-|

Intro
|----------------------------------------------|.|------------------------|
|----------------------------------------------|.|------------------------|
|----------------------------------------------|.|------------------------|
|-7\5----------------7-5-----------------------|.|-5/7--------------------|
|-7\5-2--2--2-2-2--2-7-5-2--2--2--2-2-2--2-2-2-|.|-5/7-7--7--7-7-7--7-7-7-|
|-5\3-0--0--0-0-0--0-5-3-0--0--0--0-0-0--0-0-0-|.|-3/5-5--5--5-5-5--5-5-5-|
      pm............]    pm...................]        pm................]

Verse
||------------------------------------------------||
||*----------------------------------------------*||
||------------------------------------------------||
||--7\5----------------7-5------------------------||
||*-7\5-2--2--2-2-2--2-7-5-2--2--2--2-2-2--2-2-2-*||
||--5\3-0--0--0-0-0--0-5-3-0--0--0--0-0-0--0-0-0--||
        pm............]    pm...................]

||--------------------------||
||*------------------------*||
||--------------------------||
||--5/7---------------------||
||*-5/7-7--7--7-7-7--7-7-7-*||
||--3/5-5--5--5-5-5--5-5-5--||
        pm................]

|----------------------------------------------------|
|----------------------------------------------------|
|----------------------------------------------------|
|-7/10----------------------10-9---------------------|
|-7/10-10--10--10-10-10--10-10-9--9--9--9-9-9--9-9-9-|
|-5/8---8---8---8--8--8---8--8-7--7--7--7-7-7--7-7-7-|
       pm..................]     pm.................]

tabbed by Rebel X
Ramms+ein tabs: http://www.geocities.com/SunsetStrip/Pit/2594/index.html


Rammstein albums
2004 Reise, Reise
2001 Mutter
1997 Sehnsucht
1995 Herzeleid
Sehnsucht tabs
01Sehnsucht tabbass tab
02Engel tabbass tab
03Tier tabbass tab
04Bestrafe Mich tabbass tab
05Du Hast tabbass tab
06Bück Dich tabbass tab
07Spiel Mit Mir tabbass tab
08Klavier tabbass tab
09Alter Mann tabbass tab
10Eifersucht tabbass tab
11Küss Mich (Fellfrosch) tabbass tab

 

1