Search tabs:
Browse artists: 0-9 | A | B | C | D | E | F | G | H | I | J | K | L | M | N | O | P | Q | R | S | T | U | V | W | X | Y | Z
/ / / guitar tab

Song: Question!
Band: System of a Down
Album: Mezmerize
Tabber: Zach Kraemer

Tuning: Db Ab Db Gb Bb Eb
Acoustic guitar has a capo on 1st fret! (Or just DADGBE with no capo)

Acoustic intro
|-0--------------0----------------0---|-^0--------|
|------0----0------0----0----0------0-|-|0--------|
|--------12---------------12----------|-|12-------|
|---10--------10-----10--------10-----|-|10-------|
|-------------------------------------|-----------|
|-------------------------------------|-----------|

Distortion
|---------------------|----------------------|
|---------------------|----------------------|
|---------------------|----------------------|
|-3--/10-8--8-6h8-5h6-|----------------------|
|-3--/10-8--8-6h8-5h6-|----------------------|
|-3--/10-8--8-6h8-5h6-|-3-33-10-8-8-6-8-5-6--|
                      Pm. .. .. . . . . . .

Verse: clean, w/acoustic intro
|-------------------------------------|
|-------------------------------------|
|-------------------------------------|
|-------4-------------4---------------|
|---5h7---7-5h7---5h7---7-5h7-5-------|
|-0-------------0---------------------|

|----------------------------------------------|
|----------------------------------------------|
|----------------------------------------------|
|-------4-------------4------------------------|
|---5h7---7-5h7---5h7---7-5h7-5---1/8\--1/10\--|
|-0-------------0------------------------------|

Pre-Chorus: Acoustic
|-3-----3-----3-----3-----|
|-0-----0-----0-----0-----|
|-0-----0-----0-----0-----|
|-2-----2-----2-----2-----|
|-------------------------|
|-------------------------|

Chorus: Distortion
                       3x
|------------------------|------------------------|
|------------------------|------------------------|
|------------------------|------------------------|
|--------5p3--------5p3--|--------5p3--------5p3--|
|-3----------3-----------|-8----------8-----------|
|-3--3-3-----3--3-3------|-8--8-8-----8--8-8------|
Pm   . .        . .           . .        . .

Bridge
|-----------------------------------------|
|-----------------------------------------|
|-----------------------------------------|
|-----------------------------------------|
|-----------------------------------------|
|-3-3333-0--3-3333-0--3-3333-0--3-3333-0--|
Pm. ....    . ....    . ....    . ....

|-----------------------------------------|
|-----------------------------------------|
|-----------------------------------------|
|-----------------------------------------|
|-----------------------------------------|
|-88888888888888888888888888888888888888--|
Pm......................................

Those are basically the only necessary parts. Great song!


albums
tabs

 

1