Search tabs:
Browse artists: 0-9 | A | B | C | D | E | F | G | H | I | J | K | L | M | N | O | P | Q | R | S | T | U | V | W | X | Y | Z
/ / / guitar tab

Author/Artist: System Of A Down
Title: Sad Statue
Album: Mezmerize
Transcribed by: Shiver
Email: keishly@hotmail.com

Tuned - drop Db tuning (Db, Ab, Db, Gb, Bb, Eb)

\          Slide Down
/          Slide Up
^          Harmonic
h          Hammer On
p          Pull Off
|..PM..|   Palm Mute


Intro A
|--------------------------|
|--------------------------|
|--------------------------|
|--------------------------|
|--5p0h5p0h5p05p05p05p0h6--|
|--------------------------|

Intro B
|-----------------------------------------|----------------------------------|
|-----------------------------------------|----------------------------------|
|--7--------------------------------------|--7-------------------------------|
|--7--------------------------------------|--7-------------------8---10--8---|
|--5--------------5p0h5p0h5p05p05p05p0h6--|--5-------------------6---8---6---|
|----000000000000-------------------------|----0000000000000000--------------|
     |....pm....|                              |......pm......|

|-----------------------------------------|----------------------------------|
|-----------------------------------------|----------------------------------|
|--7--------------------------------------|--7-------------------------------|
|--7--------------------------------------|--7---------------8-10-8--8-10-8--|
|--5--------------5p0h5p0h5p05p05p05p0h6--|--5---------------6-8--6--6-8--6--|
|----000000000000-------------------------|----000000000-12\-----------------|
     |....pm....|                              |..pm...|

Intro C
|-----------------------------------------|----------------------------------|
|-----------------------------------------|----------------------------------|
|--7--------------------------------------|--7-------------------------------|
|--7-0-0-0-0-0-0--------------------------|--7-0-0-0-0-0-0-0-0-0--8---10--8--|
|--5-0-0-0-0-0-0--5p0h5p0h5p05p05p05p0h6--|--5-0-0-0-0-0-0-0-0-0--6---8---6--|
|----0-0-0-0-0-0--------------------------|----0-0-0-0-0-0-0-0-0-------------|
     |...pm....|                               |......pm.......|

|-----------------------------------------|----------------------------------|
|-----------------------------------------|----------------------------------|
|--7--------------------------------------|--7-------------------------------|
|--7-0-0-0-0-0-0--------------------------|--7-0-0-0-0-0-----8-10-8--8-10-8--|
|--5-0-0-0-0-0-0--5p0h5p0h5p05p05p05p0h6--|--5-0-0-0-0-0-----6-8--6--6-8--6--|
|----0-0-0-0-0-0--------------------------|----0-0-0-0-0-12\-----------------|
     |...pm....|                               |..pm...|

Verse
|------------------------------|--|------------------------------------------|
|------------------------------|--|------------------------------------------|
|------------------------------|--|--777777-8--777777-8--777777-8--777777-8--|
|------------------------------|X2|--777777-8--777777-8--777777-8--777777-8--|
|--5-686--5-686--5-686--5-686--|--|--555555-6--555555-6--555555-6--555555-6--|
|------------------------------|--|------------------------------------------|
|.............pm...............|

Play this whole part twice over.

Chorus
|------------------------------|--|-----------|
|------------------------------|--|-----------|
|------------------------------|--|-----------|
|-----1-----5-----0-----3------|X2|-----3-----|
|-----1-----5-----0-----3------|--|-----3-----|
|-----1-----5-----0-----3------|--|-----3-----|

The verse and chorus are then repeated. Only play the second part of this after the second
chorus which leads into the breakdown.

Breakdown
|-----------------------------------------------------------------------|
|-----------------------------------------------------------------------|
|------7---8---7--------7---6---7-------------------------7---6---7-----|
|----5---5---5---5----5---5---5---5------7---8---7------5---5---5---5---|
|--6-----------------------------------5---5---5---5--6-----------------|
|-------------------5----------------0----------------------------------|


|-----------------------------------------------------------------------|
|--8888888888888888811111111111111111110101010101010101111111111111111--|
|--77777777777777777121212121212121212xxxxxxxxxxxxxxxx1212121212121212--|
|-------------------------------------1212121212121212------------------|
|-----------------------------------------------------------------------|
|-----------------------------------------------------------------------|

This second part seems to be mixed over the first part of the breakdown. After this it
goes back into Intro B and C before and then back into the Chorus and finishes with this.

Outro
|-----------------------------------------|-----------------------------------|
|-----------------------------------------|-----------------------------------|
|--7--------------------------------------|--7--------------------------------|
|--7-0-0-0-0-0-0--------------------------|--7-0-0-0-0-0-0-0-0-0--8---10--8---|
|--5-0-0-0-0-0-0--5p0h5p0h5p05p05p05p0h6--|--5-0-0-0-0-0-0-0-0-0--6---8---6---|
|----0-0-0-0-0-0--------------------------|----0-0-0-0-0-0-0-0-0--------------|
     |...pm....|                               |......pm.......|

|-----------------------------------------|-----------------------------------|
|-----------------------------------------|-----------------------------------|
|--7--------------------------------------|--7------------------------------7-|
|--7-0-0-0-0-0-0--------------------------|--7-0-0-0-0-0-----8-10-8--8-10-8-7-|
|--5-0-0-0-0-0-0--5p0h5p0h5p05p05p05p0h6--|--5-0-0-0-0-0-----6-8--6--6-8--6-5-|
|----0-0-0-0-0-0--------------------------|----0-0-0-0-0-12\------------------|
     |...pm....|                               |..pm...|

This is near perfect but if you have any comments or improvements then feel
free to email them to me, if unsure of rythm or number of times a note is
played just listen to the song...


albums
tabs

 

1