Search tabs:
Browse artists: 0-9 | A | B | C | D | E | F | G | H | I | J | K | L | M | N | O | P | Q | R | S | T | U | V | W | X | Y | Z
/ / / guitar tab

Artist: System of a Down
Album: Mezmerize
Song: Violent Pornography
Guitarist: Daron Malakian
Transcripted by: mrSlam
E-mail: mrslamstuff@rambler.ru

Tuning: DAFCGC
Legend: / - slide up
        \ - slide down
        ^ - bend
        ~ - hold note
        h - hammer on
        p - pull off
        PM ... - palm mute


 Intro (0:00 - 0:20) Clean
D|------------------------------------------|
A|------------------------------------------|
F|---0--1-1h3~--4-3-1-4-3-1--------4--8--4--|
C|--------------------------5^5~~-----------| x2
G|------------------------------------------|
C|-1~---------------------------------------|

 Verse (0:20 - 0:33) Clean      (0:33) Dist.
D|---------------------|        |--------|
A|---------------------|        |--------|
F|---------------------|        |--------|
C|-1-2--2-3--3-2--2-1--| x2     |--------|
G|-1-2--2-3--3-2--2-1--|        |-13\\\--|
C|-1-2--2-3--3-2--2-1--|        |-13\\\--|

 Pre-Chorus (0:34 - 0:36) Dist.
D|----------------------------------------------|
A|----------------------------------------------|
F|----------------------------------------------|
C|-1-1--1---1-1-111--1---1-1-111--1---11-2-4-5--|
G|-1-1--1---1-1-111--1---1-1-111--1---11-2-4-5--|
C|-1-1--1---1-1-111--1---1-1-111--1---11-2-4-5--|
PM . .      . . ...      . . ...      ..

 (0:37 - 0:40)
D|----------------------------------------------|
A|----------------------------------------------|
F|----------------------------------------------|
C|-1-1--1---1-1-111--1---1-1-111--1---11-5-4-2--|
G|-1-1--1---1-1-111--1---1-1-111--1---11-5-4-2--|
C|-1-1--1---1-1-111--1---1-1-111--1---11-5-4-2--|
PM . .      . . ...      . . ...      ..

 (0:40 - 0:43)
D|-------------------------------------------|
A|-------------------------------------------|
F|-------------------------------------------|
C|-1-1--1------1111-1-----1111-1---11-2-4-5--|
G|-1-1--1------1111-1-----1111-1---11-2-4-5--|
C|-1-1--1------1111-1-----1111-1---11-2-4-5--|
PM . .         ....       ....     ..

 (0:44 - 0:46)
D|--------------------------------------|
A|--------------------------------------|
F|--------------------------------------|
C|-1-1--1---1111-1-1111-1-111111-2-4-2--|
G|-1-1--1---1111-1-1111-1-111111-2-4-2--|
C|-1-1--1---1111-1-1111-1-111111-2-4-2--|
PM . .      ....   ....   ......

 Chorus (1:14 - 1:27) Dist.
D|----------------------------------------------|
A|----------------------------------------------|
F|----------------------------------------------|
C|-1~--5~--6~--8~--9~--11~--13~--9~-------------|
G|-1~--5~--6~--8~--9~--11~--13~--9~-------------|
C|-1~--5~--6~--8~--9~--11~--13~--9~-------------|

 Chorus part 2 (1:27 - 1:40) Dist.
D|-----------------------------------------------------------------------------------------------|
A|-----------------------------------------------------------------------------------------------|
F|-----------------------------------------------------------------------------------------------|
C|-1-111111--5-555555--6-666666--8-888888--9-999999--11-111111111111--13-131313131313--9-999999--|
G|-1-111111--5-555555--6-666666--8-888888--9-999999--11-111111111111--13-131313131313--9-999999--|
C|-1-111111--5-555555--6-666666--8-888888--9-999999--11-111111111111--13-131313131313--9-999999--|
PM   ......    ......    ......    ......    ......     . . . . . .      . . . . . .     ......

 Chorus 2 (2:08 - 2:34) Clean
D|----------------------------------------------|
A|----------------------------------------------|
F|----------------------------------------------|
C|-1~--5~--6~--8~--9~--11~--13~--9~-------------| x2
G|-1~--5~--6~--8~--9~--11~--13~--9~-------------|
C|-1~--5~--6~--8~--9~--11~--13~--9~-------------|

 Chorus ending (2:48 - 3:04) Dist.
D|----------------------------------------------|
A|----------------------------------------------|
F|----------------------------------------------|
C|-1~--5~--6~--8~--9~--11~--13~--9~--13~--9~----| x2
G|-1~--5~--6~--8~--9~--11~--13~--9~--13~--9~----|
C|-1~--5~--6~--8~--9~--11~--13~--9~--13~--9~----|

 Ending (3:27) Clean
D|-------|
A|-------|
F|-------|
C|-------|
G|-------|
C|-1~~---|


Song structure:

Intro
Verse
Pre-Chorus
Verse
Pre-Chorus
Chorus
Chorus part 2
Verse
Pre-Chorus
Chorus 2
Chorus part 2
Chorus ending
Intro
Ending


Yeah! It's one of my favorite songs from this album. It's so f---n' funny! :)))
Enjoy, friends, and don't forget TO RATE IT!


albums
tabs

 

1