Search tabs:
Browse artists: 0-9 | A | B | C | D | E | F | G | H | I | J | K | L | M | N | O | P | Q | R | S | T | U | V | W | X | Y | Z
/ / / guitar tab

Reptilia  THE STROKES
-------------------------------------------------------------------------------

By: indierocker1  rate this

     Guitar 1
e|---------------------------------------------------------------------
B|---------------------------------------------------------------------
G|--7-7-7------7-7-7---------------7----------7------------------------
D|--------9-7--------9-7---6-6-6-9----6-6-6-9--------------------------
A|---------------------------------------------------------------------
E|---------------------------------------------------------------------

       Guitar 2
e|---------------------------------------------------------------------
B|--15-15-10-10-10-12-12-12-14-14-14-12-12-12-14-14-14-10-10-10-15-15--
G|---x--x--x--x--x--x--x--x--x--x--x--x--x--x--x--x--x--x--x--x--x--x--
D|---x--x--x--x--x--x--x--x--x--x--x--x--x--x--x--x--x--x--x--x--x--x--
A|--14-14--9--9--9-10-10-10-12-12-12-10-10-10-12-12-12--9--9--9-14-14--
E|-----------------------------------------------------------------(2x)

        Guitar 1
e|-10-------10-9-------9------------------12---------------------------
B|----12---------10------12---12-15-14-------14-10---------------------
G|-------11---------11------12---------14----------11----11------------
D|----------------------------------------------------12---------------
A|---------------------------------------------------------------------
E|-----------------------------------------------------------------(3x)

e|---------------------------------------------------------------------
B|-9-7---7---------------7--9-7---7------------------------------------
G|-----9---9-7-9-7-6-7-6--------9---9-7-9-7-6-7-6----------------------
D|------------------------------------------------9--------------------
A|---------------------------------------------------------------------
E|-----------------------------------------------------------------(2x)

e|---------7--------------10-9--------------12B14-10-9-7----7----------
B|---10B12---10-9-7---7--------10-9-7---7----------------10---9--------
G|------------------9---7-------------9---7----------------------------
D|---------------------------------------------------------------------
A|---------------------------------------------------------------------
E|---------------------------------------------------------------------

e|-12B14-10-9-7--------------------------------------------------------
B|--------------9B10--9-7---7------------------------------------------
G|------------------------9---9-7S4------------------------------------
D|---------------------------------------------------------------------
A|---------------------------------------------------------------------
E|---------------------------------------------------------------------


albums
tabs

 

1