Search tabs:
Browse artists: 0-9 | A | B | C | D | E | F | G | H | I | J | K | L | M | N | O | P | Q | R | S | T | U | V | W | X | Y | Z
/ Tiamat / Wildhoney (1994) / Gaia guitar tab

Group = Tiamat
                     Gaia (Improvisations)
                     from Album Wildhoney
                           Tiamat'94
                        Tabbed by Gloomy
|------------------------------|
|------------------------------|
|------10~---------------------|
|--0-7-------\7-10~---10-7-10~-|
|------------------------------|
|------------------------------|
|-----/17-------------------------------------------|
|---------18----------------------------------------|
|------------19------------14-15-14-15-14-14^15-14~-|
|-\7~-----------19-15~--17--------------------------|
|---------------------------------------------------|
|---------------------------------------------------|
|----------------------------------------------------------------|
|-----------------------------------------------------------/10~-|
|-----------------57~---------/10-9-7-7^9~--7/9--9-7-9---7-------|
|-7-7^8--------578----7-8----------------------------------------|
|-------5~--578-----------3~-------------------------------------|
|----------------------------------------------------------------|
..............
Piano plays
..............
|--------------------------------------------------------------------|
|------------------------------------18----------18----------/18-15~-|
|-----9~--10-9~--10-12~--14\12-12^14----15-14-15----15-14-15---------|
|-0-7----------------------------------------------------------------|
|--------------------------------------------------------------------|
|--------------------------------------------------------------------|
|--------------------------------------10--------------------------|
|-h---------------------------------11------10-10~-\---------------|
|-7--7---------------------------10--------------------------------|
|------7------7-3-5-5~--7-3-8-8------------------------------------|
|--------5~--------------------------------------------------------|
|------------------------------------------------------------------|
|------------------------------------|
|-/15~----/15-17-18-17-15-15/17(18)--|
|------------------------------------|
|------------------------------------|
|------------------------------------|
|------------------------------------|
|--/17-----------------------17-15----------------------------|
|\15---18-----------------15------18-17(18)17(18)17-17^18-15~-|
|---------19-----------14-------------------------------------|
|------------19-15--15----------------------------------------|
|-------------------------------------------------------------|
|-------------------------------------------------------------|

|--------5---------------------------------------------------------------|
|----5-6-----------5-6---------------------------------------------------|
|--7-------7~----7-----5~\--3-3-/5~--3/7\2~-2-3--5^3^2^0^3-3^2^0^3-2-/7~-|
|------------------------------------------------------------------------|
|------------------------------------------------------------------------|
|------------------------------------------------------------------------|
|-----------------------------------------------------------/15--------|
|-17~--15-----17---------------------------13------/17----------17-----|
|---------14-----12--15----14-----------14----12-------17----------17--|
|-----------------------15----14--12-15----------14-------17-----------|
|----------------------------------------------------------------------|
|----------------------------------------------------------------------|
|---------------------------------------------------------------------|
|-15-----------------------------------------?---?---?----?-----------|
|----14----15~--------------------------------------------------------|
|-------15-------17----------12~-------[... fade out.. ]--------------|
|----------------------15---------------------------------------------|
|---------------------------------------------------------------------|
Tabbed by Peter Kosyh aka Gloomy
Comments are welcome: gl00my@mail.ru
Homepage: http://gloomy.cjb.net


Tiamat albums
2004 Prey
2002 Judas Christ
1997 A Deeper Kind of Slumber
1994 Wildhoney
1992 Clouds
1991 The Astral Sleep
Wildhoney tabs
02Whatever That Hurts tabbass tab
03The Ar tabbass tab
05Gaia tabbass tab
06Visionaire tabbass tab
08Do You Dream Of Me ? tabbass tab
09Planets tabbass tab

 

1